» » »

Set In Stone Tabs (ver.1)

Artists:  A B C D E F G H I J K L M N O P Q R S T U V W X Y Z # 

Set In Stone Tabs (ver.1)

Obituary
Rating:
0/5 (0 votes)

Hard to play? Try these video lessons and learn fast.
                                             OBITUARY - SET IN STONE
                        Copyright: Roadrunner Records 1994
                             Version 1.0 APRIL, 2002


For Questions, Comments, Newest Version, or Corrections contact


.  - palm mute           /  - slide up to
\  - slide down to       ~  - vibrato
h  - hammer on           b  - bend
p  - pull off            Suffixes for bend ^
ph - pinched harmonic     f - full bend    h - half bend
*  - see comment          r - release      t - tap bend
X  - Staccato            ~ - vibrato bend q - quarter bend
,  - slight palm mute    () - ghost note, sustained note
"  - Tremolo note        <> - Trill

Tunning: "D"G"C"F"A"D" 

Riff 1
|----------------------------------------|
|----------------------------------------|
|----------------------------------------|
|--3--2-------------------------------5--|
|--1--0-------2-------3-------5-------3--|
|--------0000-0--0000-1--0000-3--0000----|
         ....    ....    ....    ....

Riff 2-A
|---------------------------------------------|
|---------------------------------------------|
|---------------------------------------------|
|--8----7----5-------3-------6-------4--------|
|--6----5----5-------3-------6-------4--------|
|--6----5----3--0000-1--0000-4--0000-2--0000--|
                ....    ....    ....    ....

Riff 2-B
|----------------------------------|
|----------------------------------|
|----------------------------------|
|--5-------3-------6-------4-------|
|--5-------3-------6-------4-------|
|--3--0000-1--0000-4--0000-2--0000-|
      ....    ....    ....    ....

Riff 3 (Solo Riff)
|--------------------------------------------------------------------|
|--------------------------------------------------------------------|
|--------------------------------------------------------------------|
|--------------------------55554444------------------------55554444--|
|----------6666555533333333----------------6666555533333333----------|
|--33333333------------------------33333333--------------------------|


Solo 2 ~~ G Harmonic Minor Scale ~~
|-----------------------------------------------------------------------
|-----------------------------------------------------------------------
|--------------------------12--11--12-----------------------------------
|----------13--12--10----------------------13--12--10-------------------
|--10------------------------------------------------------10--9--10~/--
|-----------------------------------------------------------------------


------------------------------------------------------------------------
------------------------------------------------------------------------
-----------------------------------11"------------11"12"----bh----------
-----------10"12"13"------10"12"13"------10"12"13"-------12(12)~-10~~/--
--10"12"13"---------12"13"------------13"-------------------------------
------------------------------------------------------------------------


--------------------14^-(14)/-----|
--------------------bf------------|
--------------11"12"--------------|
-----10"12"13"--------------------|
--13"-----------------------------|
----------------------------------|

Riff 4-A
|----------------------------------------------------|
|----------------------------------------------------|
|----------------------------------------------------|
|--5-/-4---------------------------------------------|
|--3-/-2-------3-\-4-------5-/-4-------3-\-4--5-/-4--|
|---------0-0--1-\-2--0-0--3-/-2--0-0--1-\-2--3-/-2--|
          . .         . .         . .

Riff 4-B
|----------------------------------------------------|
|----------------------------------------------------|
|----------------------------------------------------|
|--5-/-4---------------------------------------------|
|--3-/-2-------3-\-4-------5-/-4-------3-\-4--5x-----|
|---------0-0--1-\-2--0-0--3-/-2--0-0--1-\-2--3x-----|
          . .         . .         . .

Riff 5
|----------------------------------------------------|
|----------------------------------------------------|
|----------------------------------------------------|
|--2-------5-------6--------2-------5-------3--------|
|--2-------5-------4--------2-------5-------1--------|
|--0--0000-3--0000-4--------0--0000-3--0000-1--------|
      ....    ....             ....    ....

Riff 6
|--------------------------------------------------------------------|
|--------------------------------------------------------------------|
|--------------------------------------------------------------------|
|--------------------------------------------------------------------|
|--------------------------------------------------------------------|
|--0000000033333344330000001111111100000000333333443300000011111111--|


Riff 1 (Repeat)                            End
|----------------------------------------||---------|
|----------------------------------------||---------|
|----------------------------------------||---------|
|--3--2-------------------------------5--||--3--2---|
|--1--0-------2-------3-------5-------3--||--1--0---|
|--------0000-0--0000-1--0000-3--0000----||---------|
         ....    ....    ....    ....

Sorry that I didn't get the first solo done. I'll come back to
it later when I figure out what the hell Allen is doing.

Check out my other tabs by Obituary, Deicide, Six Feet Under,
Catastrophic, Hypocrisy, Grave, Incantation and Death.
            
Hard to play? Try these video lessons and learn fast. | Correct




comments powered by Disqus
↑ Back to top | Tablatures and chords are parodies/interpretations of the original songs. You may use it for private study, scholarship, research or language learning purposes only