» » »

Lockdown Tabs (ver.2)

Artists:  A B C D E F G H I J K L M N O P Q R S T U V W X Y Z # 

Lockdown Tabs (ver.2)

Obituary
Rating:
0/5 (0 votes)

Hard to play? Try these video lessons and learn fast.
                I tabbed this cause I couldn't find one in C and I hate tuning all the time
It might be wrong but it's better then some cr*p I've seen 
Enjoy and please rate this took some time to put together
 !!OBITUARY!!! ROCK ON!

TUNING- C down 2 whole steps

Notation 
B = bend			P = pull of
/ = slide			H = hammer on
x = mute with left hand        (?) = let ring
X = palm mute

Riff 1							     Part 2 (5th time play part 2 4X)
|-----------------------------------------------------------||---------------------------------------| x5
|-----------------------------------------------------------||---------------------------------------| 
|-----------------------------------------------------------||---------------------------------------| 
|--7-6-9--6-6-6-6-6-6--7-6-9--6-6-6-6-6-6--7-6-9--6-6-6-6-6-||-12-12-12-12-12-12-11-11-11-11-11-11---| 
|--7-6-9--6-6-6-6-6-6--7-6-9--6-6-6-6-6-6--7-6-9--6-6-6-6-6-||-12-12-12-12-12-12-11-11-11-11-11-11---|
|--5-4-7--4-4-4-4-4-4--5-4-7--4-4-4-4-4-4--5-4-7--4-4-4-4-4-||-10-10-10-10-10-10--9--9--9--9--9--9---|
	  x-x-x-x-x-x         x-x-x-x-x-x         x-x-x-x-x

Riff 2					Lead	
|-----------------------------------|  |------------------------------------???-|
|-----------------------------------|  |------------------------------------???-|
|-----------------------------------|X4|-12-11-14-16-(17)--12-11-14-17-(16)-???-|I'm lost
|-7--6--9-11-12--6-6--7--6--9-12-11-|  |------------------------------------???-|I can't
|-7--6--9-11-12--6-6--7--6--9-12-11-|  |------------------------------------???-|tab a solo 
|-5--4--7-9--10--4-4--5--4--7-10--9-|  |------------------------------------???-|
		 X X	 
Riff 3 (????? could be wrong????)
|----------------------------------||
|----------------------------------||
|----------------------------------||X4
|-6-6-6-6--7-6-6-9-6-6-10-6-6-9-10-||
|-6-6-6-6--7-6-6-9-6-6-10-6-6-9-10-||
|-4-4-4-4--5-4-4-7-4-4--8-4-4-7--8-||
  X-X-X-X    X-X   X-X    X-X 

Riff 2 (with lead)
Riff 1

Fill 1
||-------||
||-------||
||-------||
||-7-6-9-||
||-7-6-9-||
||-5-4-7-||

pause...then

Riff 1
Fill 1

Riff 4
|-------------------------|
|-------------------------|
|-------------------------| X4
|-7--6--9-10--7--8--6-5-6-|
|-7--6--9-10--7--8--6-5-6-|
|-5--4--7--8--5--6--4-3-4-|

Riff 3 with lead (not tabbed)
Riff 2 (x2) then (x2 with lead)
Fill 
Riff 1 (x1) part2 (x4)

END
            
Hard to play? Try these video lessons and learn fast. | Correct




comments powered by Disqus
↑ Back to top | Tablatures and chords are parodies/interpretations of the original songs. You may use it for private study, scholarship, research or language learning purposes only