» » »

Obituary, Don't Care Tabs (ver.2)

Artists:  A B C D E F G H I J K L M N O P Q R S T U V W X Y Z # 

Don't Care Tabs (ver.2)

Obituary Tabs
Rating:
0/5 (0 votes)
Hard to play? Try these video lessons and learn fast.
                OBITUARY
DON'T CARE 

THIS SOUNDS PRETTY GOOD, BUT YOU CAN'T SIMPLY PLAY ALL THE
CHORDS OPEN.  ON THIS ALBUM, YOU CAN'T LET THE NOTES RING OUT.
YOU SHOULD DEADEN THE STRINGS CONSTANTLY AND ALMOST ALWAYS PALM
MUTE THE E STRING WHEN PLAYED OPEN.  SO IF IT SOUNDS STUPID, 
CHANGE THE WAY YOU ARE PLAYING IT. 

RIFFS:

#1
E -------------------------------------------------------
B -------------------------------------------------------
G -------------------------------------------------------
D -------------------------------------------------------
A -3-4---2/3---2/1---1-----------------------------------
E -3-4-0-2/3-0-2/1-0-1-021-------------------------------

#2
E -------------------------------------------------------
B -------------------------------------------------------
G -------------------------------------------------------
D -------------------------------------------------------
A -2-3---2/1---2/1---1-----------------------------------
E -2-3-0-2/1-0-2/1-0-1-010-------------------------------

#3
E -------------------------------------------------------
B -------------------------------------------------------
G -------------------------------------------------------
D -------------------------------------------------------
A -1-2--3-2----------------------------------------------
E -1-2--1-0--0-0-0-0-0-----------------------------------

#4
E -------------------------------------------------------
B -------------------------------------------------------
G -------------------------------------------------------
D -----4-3-----------------------------------------------
A -2-3-4-3---1-2-3-2-------------------------------------
E -2-3-------1-2-1-0-------------------------------------

#5
E -------------------------------------------------------
B -------------------------------------------------------
G -------------------------------------------------------
D -------------------------------------------------------
A -----3/1-3/1-3/1-3/1-4/3/4/5---------------------------
E -0-0-3/1-3/1-3/1-3/1-4/3/4/5---------------------------

END
E -------------------------------------------------------
B -------------------------------------------------------
G -------------------------------------------------------
D -------------------------------------------------------
A -----3/2-3/2-3/2-3/2-4-3-4-5---------------------------
E -0-0-3/2-3/2-3/2-3/2-4-3-4-5---------------------------

STRUCTURE:

1)1*4   5)1*4   9)1*4    13)3*2   17)5*8
2)2+4   6)3*4   10)2*4   14)1*4   18)END
3)1*4   9)4*1   11)3*4   15)2*4
4)2*4   8)3*2   12)4*1   16)1*4
            

comments powered by Disqus
↑ Back to top | Obituary Tabs for Don't Care. Lyrics for acoustic guitar and electric guitar. Tablatures and chords are parodies/interpretations of the original songs. You may use it for private study, scholarship, research or language learning purposes only