>
 >
Corrosive

Corrosive Guitar Tabs

Obituary - Corrosive chords, tabs, tablatures, lyrics

Guitar lessons | Add/correct | Request | Top 50 tabs Artists:  A B C D E F G H I J K L M N O P Q R S T U V W X Y Z 0-9

Corrosive Guitar Tabs – Obituary

CD, Sheet music, Poster

Do you like Corrosive? Share with your friends now
Tabs
                                OBITUARY - CORROSIVE
                          From the Album - THE END COMPLETE
                         Copyright - Roadrunner Records 1992
                                Version 1.0 July 2001
                                Revised Setp 30, 2002


For Questions, Comments, Newest Version, or Corrections contact


.  - palm mute           /  - slide up to
\  - slide down to       ~  - vibrato
h  - hammer on           b  - bend
p  - pull off            Suffixes for bend ^
ph - pinched harmonic     f - full bend    h - half bend
*  - see comment          r - release      t - tap bend
X  - Stuccatto            ~ - vibrato bend q - quarter bend
,  - slight palm mute    () - ghost note, sustained note

Tuning: "D"G"C"F"A"D


Riff 1
|---------------------------------------------------------|
|---------------------------------------------------------|
|---------------------------------------------------------|
|-----------8---------------------------------------------|
|--2--------6--------7------------------------------------|
|--0---0000-----0000-5---0-0-0-0-0-0-0-0-5-5-5-5-5-5-5-5--|
       ....     ....     . . . . . . . . . . . . . . . .

Riff 2                                         
|---------------------------------------------|
|---------------------------------------------|
|---------------------------------------------|
|--7------8-----------------4--5--4-----------|
|--5------6--------------4--2--3--2--4--------|
|--5------6------0--0----2-----------2--0--0--|
                 .  .                   .  .

Fill 1
|------------------|
|------------------|
|------------------|
|--7------8--------|
|--5------6--------|
|--5------6--------|


Riff 3
|------------------------------------------------------|
|------------------------------------------------------|
|------------------------------------------------------|
|--2--2--2--2--5----2--2--2--2--2--2--3---2---7---8----|
|--2--2--2--2--5----2--2--2--2--2--2--3---2---5---6----|
|--0--0--0--0--3----0--0--0--0--0--0--1---0---5---6----|


Riff 4-A
|---------------------------------------------------|
|---------------------------------------------------|
|---------------------------------------------------|
|--------7-\-8---7----------------------------------|
|--------5-\-6---5----------5-\-6---5----------3----|
|--0--0---------------0--0--3-\-4---3----0--0--1----|
   .  .               .  .               .  . 

Riff 4-B
|---------------------------------------------------|
|---------------------------------------------------|
|---------------------------------------------------|
|--------7-\-8---7----------5-\-6---5----------3----|
|--------5-\-6---5----------5-\-6---5----------3----|
|--0--0--5-\-6---5----0--0--3-\-4---3----0--0--1----|
   .  .               .  .               .  . 

Solo (E Natural Minor)
|------------14-------14h15p14--15"-14"-----------------------------
|--17~~~~~~~~----15---------------------17"-15-"17-"-15"------------
|--------------------------------------------------------17"-16"-17"
|-------------------------------------------------------------------
|-------------------------------------------------------------------
|-------------------------------------------------------------------


--------------------------------------------------------------------
--------------------------------------------------------------------
-16"-14"-----14"-16~~~~~~16-14h16p14--------------------------------
---------17"-------------------------17-16h17p16-14~~~~~~~~~~~~~///-
--------------------------------------------------------------------
--------------------------------------------------------------------


--------------------------------------------------------------------
--------------------------------------------17-15----15-------------
---------------14----14-14h16~~~~-16h17p16-------17----17-16-14h16~~
14-16-17-16-17----17------------------------------------------------
--------------------------------------------------------------------
--------------------------------------------------------------------


--14h15p14-14h15p14--15"-14"----------------------------------------
-----------------------------17"-15"-17"-15"------------------------
---------------------------------------------17"-16"-17"-16"-14h16~~
--------------------------------------------------------------------
--------------------------------------------------------------------
--------------------------------------------------------------------

--------------------------------------------------------------------|
--------------------------------------------------------------------|
--16-14-16~~~~~~~~~~~~~~~~~~~~~~~~~~~~~~~~~~~~~~~~~~~~~~~~~~~~~~~~--|
--------------------------------------------------------------------|
--------------------------------------------------------------------|
--------------------------------------------------------------------|


Riff 5
|-------------------------------------------------------------------|
|-------------------------------------------------------------------|
|-------------------------------------------------------------------|
|-------------------------------------------------------------------|
|-------------------------------------------------------------------|
|--0-0-0-0-0-0-0-0-2-2-2-2-2-2-2-2-3-3-3-3-3-3-3-3-1-1-1-1-2-2-2-2--|
|  . . . . . . . . . . . . . . . . . . . . . . . . . . . . . . . .  |
|                                                                   |
|-------------------------------------------------------------------|
|-------------------------------------------------------------------|
|-------------------------------------------------------------------|
|-------------------------------------------------------------------|
|-------------------------------------------------------------------|
|--0-0-0-0-0-0-0-0-2-2-2-2-2-2-2-2-3-3-3-3-3-3-3-3-2-2-1-1-2-2-2-2--|
   . . . . . . . . . . . . . . . . . . . . . . . . . . . . . . . .

Riff 6-A 
|----------------------------------------|
|----------------------------------------|
|----------------------------------------|
|-------3---------4-------------5\6-6/5--|
|-------3---------2-------------5\6-6/5--|
|--0000-1----0000-2----00000000-3\4-4/3--|


Riff 6-B
|----------------------------------------------|
|----------------------------------------------|
|----------------------------------------------|
|-------3\4-4/3-------5\6-6/5-------3\4-4/3----|
|-------3\4-4/3-------5\6-6/5-------3\4-4/3----|
|--0000-1\2-2/1--0000-3\4-4/3--0000-1\2-2/1----|


Check out my other tabs by: Deicide, Obituary, Hypocrisy, 
Grave, Catastrophic, Six Feet Under, Incantation, Death and 
Cannibal Corpse.





Comments


Popular Obituary tabs & chords
Body Bag Bass Tabs
Buried Alive Tabs
By The Light Tabs
Dead Silence 1 Tabs
Don't Care Tabs
Immortal Visions Tabs
Lost Tabs
Pressure Point Tabs
Rewind Tabs
Rotting Ways 1 Tabs


Song lyrics



↑ Back to top | Tablatures and chords are parodies/interpretations of the original songs. You may use it for private study, scholarship, research or language learning purposes only
© 2014 AZChords.com Contact us | Privacy policy | DMCA | Add/correct tabs | Request tabs | Top 50 tabs