>
 >
Boiling Point

Boiling Point Guitar Tabs

Obituary - Boiling Point chords, tabs, tablatures, lyrics

Guitar lessons | Add/correct | Request | Top 50 tabs Artists:  A B C D E F G H I J K L M N O P Q R S T U V W X Y Z 0-9

Boiling Point Guitar Tabs – Obituary

CD, Sheet music, Poster

Do you like Boiling Point? Share with your friends now
Tabs
OBITUARY - BOILING POINT
                            From the Album - WORLD DEMISE
                         Copyright - ROADRUNNER RECORDS 1994
                              Version 1.0 - Oct 30, 2002



For Questions, Comments, Newest Version, or Corrections contact


.  - palm mute           /  - slide up to
\  - slide down to       ~  - vibrato
h  - hammer on           b  - Bend
p  - pull off            Suffixes for bend
t  - tap                 f  - full bend    h - half bend
ph - pinched harmonic    q  - quarter bend t - tap bend
nh - natural harmonic    ^  - Hold bend    r release bend
*  - see comment         ~  - vibrato bend
x  - Stuccatto           () - ghost note, sustained note
,  - slight palm mute    <> - Trill
"  - tremolo note

Tuning: "D"G"C"F"A"D"


Riff 1
|--------------------------------|
|--------------------------------|
|--------------------------------|
|-----7---------7----------------|
|--2--5----7----5----7----6\7/6--|
|--0-----0-5--0----0-5--0-4\5/4--|
         .    .    .    .

Fill 1
|--------------------------------|
|--------------------------------|
|--------------------------------|
|--------------------------------|
|--2x---------------------6\7/6--|
|--0x---------------------4\5/4--|


Riff 2
|--------------------------------|
|--------------------------------|
|--------------------------------|
|-----7----7---------------------|
|-----5----5----5----5----3-3-3--|
|--0-----0----0-3--0-3--0-1-1-1--|
   .     .    .    .    .

Riff 3
|-----------------------------|
|-----------------------------|
|-----------------------------|
|----------------------4-4-4--|
|--2----2----3----3----2-2-2--|
|--0--0-0--0-1--0-1--0--------|
      .    .    .    .

Riff 4-A
|------------------------------------|
|------------------------------------|
|------------------------------------|
|------------------------------------|
|--5\6----4------4--4\5----3------3--|
|--3\4--0-2--0-0-2--2\3--0-1--0-0-1--|
        .    . .         .    . .

Fill 2
|------------------------------------|
|------------------------------------|
|------------------------------------|
|------------------------------------|
|--5-6x------------------------------|
|--3-4x------------------------------|


Riff 4-B
|------------------------------------|
|------------------------------------|
|------------------------------------|
|------------------------------------|
|--5\6----4----4-4--4\5----3----3-3--|
|--3\4--0-2----2-2--2\3--0-1----1-1--|
        .                .

Riff 4-B
|------------------------------------|
|------------------------------------|
|------------------------------------|
|------------------------------------|
|--5\6----4----4-4--4\5----3---------|
|--3\4--0-2----2-2--2\3--0-1---------|
        .                .

End
|-------|
|-------|
|-------|
|-------|
|--2----|
|--0----|


Check out my other tabs by: Deicide, Obituary, Hypocrisy,
Grave, Catastrophic, Six Feet Under, Incantation, Death and
Cannibal Corpse.





Comments


Popular Obituary tabs & chords
‘Til Death 1 Tabs
By The Light Tabs
Chopped In Half 1 Tabs
Contrast The Dead Tabs
Don't Care 1 Tabs
Final Thoughts Tabs
Immortal Visions Tabs
Redefine Tabs
Slowly We Rot 1 Tabs
The End Complete Tabs


Song lyrics



↑ Back to top | Tablatures and chords are parodies/interpretations of the original songs. You may use it for private study, scholarship, research or language learning purposes only
© 2014 AZChords.com Contact us | Privacy policy | DMCA | Add/correct tabs | Request tabs | Top 50 tabs