» » »

Obituary, Body Bag Tabs (ver.1)

Artists:  A B C D E F G H I J K L M N O P Q R S T U V W X Y Z # 

Body Bag Tabs (ver.1)

Obituary Tabs
 Rating:
4.3/5 (6 votes)
Body Bag lessons Tabs too difficult? Try these video lessons and learn fast
                                               OBITUARY - BODY BAG
                          From the Album - CAUSE OF DEATH
                        Copyright - ROADRUNNER RECORDS 1991
                            Version 1.4 April 12, 2001
                             Revised on Sept 24, 2002



For Questions, Comments, Newest Version, or Corrections contact


.  - palm mute           /  - slide up to
\  - slide down to       ~  - vibrato
h  - hammer on           b  - bend
p  - pull off            Suffixes for bend ^
ph - pinched harmonic     f - full bend    h - half bend
*  - see comment          r - release      t - tap bend
X  - Stuccatto            ~ - vibrato bend q - quarter bend
,  - slight palm mute    () - ghost note, sustained note
"  - Tromolo note        <> - Trill

Tunning: "D"G"C"F"A"D


Riff 1-A
|------------------------------------------------|
|------------------------------------------------|
|------------------------------------------------|
|-------7-6--------6-5--------5-4--------4-3-----|
|--2----5-4--------4-3--------3-2--------2-1--3--|
|--0---------4-4-4------3-3-3------2-2-2------1--|
             . . .      . . .      . . .

Riff 1-B
|------------------------------------------------|
|------------------------------------------------|
|------------------------------------------------|
|-------7-6--------6-5--------5-4--------4-3-----|
|-------5-4--------4-3--------3-2--------2-1--3--|
|-00000------4-4-4------3-3-3------22222------1--|
  .....      . . .      . . .      .....

Riff 2-A
|-------------------------------|
|-------------------------------|
|-------------------------------|
|----------------5------3-------|
|--2------5------3------1-------|
|--0------3---------------------|


Riff 2-B
|-------------------------------|
|-------------------------------|
|-------------------------------|
|----------------5------3---2---|
|--2------5------3------1---0---|
|--0------3---------------------|


Riff 2-C
|-----------------------------------|
|-----------------------------------|
|-----------------------------------|
|----------------5------3-----------|
|--2------5------3------1---000000--|
|--0------3-------------------------|
                            ......

Riff 2-D
|-------------------------------------|
|-------------------------------------|
|-------------------------------------|
|----------------5--------------------|
|--2------5------3------111111000000--|
|--0------3---------------------------|
                        ............

Riff 3
|------------------------------------|
|------------------------------------|
|------------------------------------|
|------------------------------------|
|--00000000--------33333333----------|
|----------22222222--------11111111--|

Riff 4-A
|-------------------------------------------------------|
|-------------------------------------------------------|
|-------------------------------------------------------|
|-------------------------------------------------------|
|--4-4-4-3--2222222233333333-4-4-4-3--3333333322222222--|
|--2-2-2-1-------------------2-2-2-1--------------------|


Fill 1 
|--------|
|--------|
|--------|
|--2x----|
|--2x----|
|--0x----|


Riff 5
|--------------------------------------|
|--------------------------------------|
|--------------------------------------|
|----------4------3------5------6------|
|----------2------1------3------4------|
|--0000000-2------1------3------4------|
   .......

Fill 2
|-------------------------|
|-------------------------|
|-------------------------|
|----------4--------------|
|----------2--------------|
|--0000000-2--------------|
   .......

Riff 6-A
|-----------------------------------------|
|-----------------------------------------|
|-----------------------------------------|
|-----------------------------------3--4--|
|-------3-3-------3-3-------3-3-----1--2--|
|--0000-1-1--0000-1-1--0000-1-1--0--------|
   ....      ....      ....      .

Riff 6-B
|--------------------------------------------|
|--------------------------------------------|
|--------------------------------------------|
|-----------------------------------3--4-----|
|-------3-3-------3-3-------3-3-----1--2--4--|
|--0000-1-1--0000-1-1--0000-1-1--0--------2--|
   ....      ....      ....      .

Fill 3
|-----------------------------------------------------------|
|-----------------------------------------------------------|
|-----------------------------------------------------------|
|-----------------------------------------------------------|
|--4-4-4-3----4-4-4-3----4-4-4-3----4-4-4-3----4--4--4--3---|
|--2-2-2-1----2-2-2-1----2-2-2-1----2-2-2-1----2--2--2--1---|


Riff 2-E (End Riff)
|--------------------------------------------------|
|--------------------------------------------------|
|--------------------------------------------------|
|--------------------5--------3------2-------------|
|--2--------5--------3--------1------0------2------|
|--0--------3-------------------------------0------|


Lyrics Translated By: INVERTED

You're rising
Cure you of the dead
Finally it has come
Now you live again

You're dying
Live beyond the way
Fighting to this day
Challenge you!

With the darkening light
You are falling, going, no...
Through the death of those
The dying

You're dying 
The killing of the One
Fighting of the days
Challenging the Son

You're dying
The killing of the need
Violence of the ways
Slowly bleed...

The killing for the need
You've fallen, die
The rising of the dead
We've fallen away
You're dying from the cross
No...NO!!!

The killing for the right
The darkened light
The rising of the dead
Glory's kill
You're dying from the cross
With the darkening light!


Check out my other tabs by Obituary, Deicide, Six Feet Under,
Catastrophic, Hypocrisy, Grave, Incantation and Death.
            
Submit corrections

comments powered by Disqus
↑ Back to top | Obituary Tabs for Body Bag. Lyrics for acoustic guitar and electric guitar. Tablatures and chords are parodies/interpretations of the original songs. You may use it for private study, scholarship, research or language learning purposes only