» » »

Body Bag Bass tabs (ver.1)

Artists:  A B C D E F G H I J K L M N O P Q R S T U V W X Y Z # 

Body Bag Bass tabs (ver.1)

Obituary
Rating:
0/5 (0 votes)

Hard to play? Try these video lessons and learn fast.
                Obituary - Body Bag 
Album - Cause of Death

 
Tuning : B E A D G C - 6 string bass	

  Riff A (Intro)                           Riff B 
C|----------------------------------------|-----------------|
G|----------------------------------------|-----------------|
D|----------------------------------------|-----------------|
A|----5-3-2------2-1-------1-0------------|-----------------|
E|----------222-------111-------000-54-0--|-----------6-5-3-|
B|----------------------------------------|-----3--6--------|

  Riff C         Riff D
C|--------------|-------------------------------------------|
G|--------------|-------------------------------------------|
D|--------------|-------------------------------------------|
A|--------------|-------------------------------------------|
E|--3-----6---3-|--------5555-666-------6666-555------------|
B|-----5----4---|--5555-4---------5555-4--------------------|

  Riff E             E1	       Riff F
C|------------------|---------|-----------------------------|
G|------------------|---------|-----------------------------|
D|------------------|---------|--------------------6-7------|
A|------------------|---------|----66----66----66-----------|
E|---------5-4-6-7--|-------5-|-----------------------------|
B|--333333----------|--3333---|-555---555---555-------------|


  Riff G Riff H (guitar solo)
C|------|---------------------------------------------------|
G|------|---------------------------------------------------|
D|------|---------------------------------------------------|
A|------|-----------------------------------------------4\--|
E|------|-0-4-6-5-4-0--0-4-6-9\---0-4-6-5-4-0---0-4-6-7-----|
B|555-4-|---------------------------------------------------|

  Riff I (Outro)
C|---------------|--------||
G|---------------|--------||
D|---------------|--------||
A|---------------|--------||
E|---------6-5-3-|--------||
B|--3---6--------|--4-4--3||

Song Structure :

Intro   Riff A*4 (0:00 - 0:27)
	Riff B*4 (0:28 - 0:51)
	Riff A*4 (0:52 - 1:17)
	Riff B*4 (1:18 - 1:43)
	Riff C*4 (1:44 - 1:51)
	Riff D*4 (1:52 - 1:59)
	Riff C*4 (2:00 - 2:08)
	Riff D*4 (2:09 - 2:17)	
	Break
	Riff E*8 (2:20 - 3:04)
	Riff E1 (3:05 - 3:08)
	Riff F*14 (3:09 - 3:56) Played fast almost like funk! With some variations thrown in, this is just a general guide.
	Riff C*4 (3:57 - 4:06)
	Riff D*4 (4:07 - 4:14)
	Riff C*4 (4:15 - 4:22)
 	Riff G*5 (4:23 - 4:35)
	Riff H Solo (4:36 - 5:02)
	Riff A*4 (5:03 - 5:28) Again played with some slight variations.
Outro   Riff I (5:29 - 5:49) Hold and fade.	
 

	
Please send corrections or comments to the above email address.

Disclaimer type stuff - This bass tab represents the authors' interpretation of 
the song, and is intended for study purposes only!! 

Love is the Law, Love under Will.
            
Hard to play? Try these video lessons and learn fast. | Correct




comments powered by Disqus
↑ Back to top | Tablatures and chords are parodies/interpretations of the original songs. You may use it for private study, scholarship, research or language learning purposes only