» » »

Blindsided Tabs (ver.1)

Artists:  A B C D E F G H I J K L M N O P Q R S T U V W X Y Z # 

Blindsided Tabs (ver.1)

Obituary
Rating:
4/5 (2 votes)

Hard to play? Try these video lessons and learn fast.
                

"Blindsided" by "Obituary"
Album "Frozen In Time"

Tuning: DGCFAD

 .   palm mute
(")  optional note 
 ~   let ring

Main Riff
|-----------------------------------------------------|
|-----------------------------------------------------|
|-----------------------------------------------------|
|----------3-----------------6---------5-----------3--|
|2----3----1-----3--2-2---5--4----5----3----2-2-3--1--|
|0----1----------1--0-0---3-------3---------0-0-1-----|
                    . .                     . .



Riff 2  pt1.
|-------------------------------|
|-------------------------------|
|-------------------------------|
|-------------------------------|
|3----6----5----2-2-2-2-2-2-2-2-|
|1----4----3----0-0-0-0-0-0-0-0-|
                . . . . . . . .

Riff 2  pt2.
(this jumps in at around 1:20
|-------------------------------------|
|-------------------------------------|
|-------------------------------------|
|-------------------------------------|
|6--(2)--3--(2)--5----2-2-2-2-2-2-2-2-|
|4--(0)--1--(0)--3----0-0-0-0-0-0-0-0-|
     .       .        . . . . . . . .

Riff 2  pt3.
|-----------------------------------------------|
|-----------------------------------------------|
|-----------------------------------------------|
|-----------------------------------------------|
|3--(2)--6--(2)--5----2----2----2----2----2----2|
|1--(0)--4--(0)--3----0----0----0----0----0----0|
     .       .        .    .    .    .    .    .

Riff 2 ending
|------------------------|
|------------------------|
|------------------------|
|------------------------|
|3-------6-------5~------|
|1-------4-------3~------|




Riff 3
|-----------------------------------|
|-----------------------------------|
|-----------------------------------|
|-----------------------------------|
|2---2--2---2--2---2--2---2--3---3--|
|0---0--0---0--0---0--0---0--1---1--|
     .      .      .      .

Riff 3  pt2.
|-----------------------------------|
|-----------------------------------|
|-----------------------------------|
|----------------------------3---3--|
|2---2--2---2--2---2--2---2--1---1--|
|0---0--0---0--0---0--0---0---------|
     .      .      .      .



Final Riff
|--------------------------------------------|
|--------------------------------------------|
|--------------------------------------------|
|----------3---------------------------------|
|2----3----1-----3--2-2-2-2-6--(2)--3--(2)--5|
|0----1----------1--0-0-0-0-4--(0)--1--(0)--3|
                    . . . . .   .       .



Order:
Main Riff     x6
Riff 2 pt.1   x4
Main Riff     x4
Riff 2 pt.1   x4

Riff 2 pt.2   x2
Riff 2 pt.3   x1
Riff 2 Ending x1

Riff 3 pt1.   x7
Riff 3 pt2.   x1
Riff 3 pt1.   x3
Riff 3 pt2.   x1

Riff 2 pt.1   x3
Riff 2 Ending x1 (do not play ~ at the end)

Main Riff     x4
Riff 2 pt.1   x3
Riff 2 Ending x1 (do not play ~ at the end)
Final Riff    x1
            
Hard to play? Try these video lessons and learn fast. | Correct




comments powered by Disqus
↑ Back to top | Tablatures and chords are parodies/interpretations of the original songs. You may use it for private study, scholarship, research or language learning purposes only