» » »

Wonder Wall Bass tabs (ver.1)

Artists:  A B C D E F G H I J K L M N O P Q R S T U V W X Y Z # 

Wonder Wall Bass tabs (ver.1)

Oasis
Rating:
0/5 (0 votes)

Hard to play? Try these video lessons and learn fast.
                song is kinda weird. gotta listen to it a few times with the tab in front of you, but here goes.

intro is all guitar. dont come in till "fire"

  
.........fire in...
G|---------------------------------------|1x|------------------------------------|3x|
D|---------------------------------------|1x|------------------------------------|3x|
A|---------------------0--2--2--0--2--0--|1x|----------0-0-0--------0--2-2-0-2-0-|3x|
E|-------0------0-0----------------------|1x|-2-2-2---2------0-0-0---------------|3x|

and all_____ the roads__
      A|-5-5----------5--5---7--7--7/--7-9-9-9-9--7--9-7-9-9-|2x|
      E|-----------------------------------------------------|2x|
   There are..............like to say..........
A|--5-5---5--5---7-7--7/-----------------------|
E|-------------------------5-----4-----2-----5-|

how___....................................................because
E|--7--7--7---7----5---7---5--7--7----5-7-5-7-5-7---7---5--7---7|

thats all the verse

chorus

maybe__________
A|-5--5--5---5----7---9---9--7--9--9-------------7---9---7--9--9--|3x|
E|------------------------------------5--5---5--------------------|3x|

1st chorus ending
A|-5--5--5---5----7---9---9--7--9--9-----------9-------------------|
E|-------------------------------------5-5--5---------0-2-0--0---0-|

go through the verse again
then the chorus 3x 

2nd chorus ending
A|-5--5--5---5----7---9---9--7--9--9---------7--9--7-9--9-|
E|------------------------------------5-5--5--------------|

chorus 8 more times with 2nd ending

outro

A|-5--5--5---5----7---9--7--9--9------------7---9--7--9--9-|3x|
E|--------------------------------5--5---5-----------------|3x|

A|-5--5--5---5----7---9--7--9--9-------------------------|
E|--------------------------------5--5---5--5--2--(2)/14-|
            
Hard to play? Try these video lessons and learn fast. | Correct




comments powered by Disqus
↑ Back to top | Tablatures and chords are parodies/interpretations of the original songs. You may use it for private study, scholarship, research or language learning purposes only