» » »

Where Did It All Go Wrong ? Bass tabs (ver.1)

Artists:  A B C D E F G H I J K L M N O P Q R S T U V W X Y Z # 

Where Did It All Go Wrong ? Bass tabs (ver.1)

Oasis
Rating:
0/5 (0 votes)

Tabs too difficult? Try these video lessons and learn fast.
                oasis
where did it all go wrong
standing on the shoulder of giants

h=hammeron  p=pulloff

Intro - x2

G /-----------------/
D /-----------------/
A /------7--5-5-5---/
E /--0-0------------/

Verses

  'You know that feeling...'               'You know it's bittersweet...' 
G /---------------------------/            /------------------------------/
D /---------------------------/            /------------------------------/
A /-5h7-7-5h7p5h7-7--5-5-5-5--/ x2 then... /-3--3-3-3--5--5-5-5-----------/
E /---------------------------/            /------------------------------/

Chorus

G /------------------/            /--------------------/
D /------------------/            /--------------------/
A /-7-7-7-5h7p5h7-7--/ x2 then... /-5--5-5-5-----------/
E /------------------/            /----------5--5-5-5--/


G /----------------------------------/
D /----------------------------------/
A /----------5-5--------------5-5-7--/ repeat 3 times, I cant figure out the 4th bar.
E /-0-0--3-------0---0-0--3----------/
            
Tabs too difficult? Try these video lessons and learn fast.


comments powered by Disqus
↑ Back to top | Tablatures and chords are parodies/interpretations of the original songs. You may use it for private study, scholarship, research or language learning purposes only