» » »

Oasis, Vvonderwall Tabs (ver.1)

Artists:  A B C D E F G H I J K L M N O P Q R S T U V W X Y Z # 

Vvonderwall Tabs (ver.1)

Oasis Tabs
 Rating:
4/5 (4 votes)
Vvonderwall lessons Tabs too difficult? Try these video lessons and learn fast
                Wonderwall                                    


                                                                      



                                                                 
E||--3--3--3--3-3-3-3-3--3--3-3-|--3-3-3--3--3-3-3-3--3-3-3-3-3-|
B||--3--3--3--3-3-3-3-3--3--3-3-|--3-3-3--3--3-3-3-3--3-3-3-3-3-|
G||--0--0--0--0-0-0-0-0--0--0-0-|--0-2-2--2--2-2-2-2--2-2-2-2-2-|
D||--2--2--2--2-2-2-0-0--0--0-0-|--0-0-0--0--0-2-2-2--2-2-2-2-2-|
A||--2--2--2--2-2-2-2-2--2--2-2-|--2-----------0-0-0--0-0-0-0-0-|
E||--0--0--0--0-0-0-3-3--3--3-3-|--3----------------------------|


                                                              
--3--3--3--3-3-3-3-3--3--3-3-|--3-3-3--3--3-3-3-3--3-3-3-3-3-|
--3--3--3--3-3-3-3-3--3--3-3-|--3-3-3--3--3-3-3-3--3-3-3-3-3-|
--0--0--0--0-0-0-0-0--0--0-0-|--0-2-2--2--2-2-2-2--2-2-2-2-2-|
--2--2--2--2-2-2-0-0--0--0-0-|--0-0-0--0--0-2-2-2--2-2-2-2-2-|
--2--2--2--2-2-2-2-2--2--2-2-|--2-----------0-0-0--0-0-0-0-0-|
--0--0--0--0-0-0-3-3--3--3-3-|--3----------------------------|


                                                              
--3--3--3--3-3-3-3-3--3--3-3-|--3-3-3--3--3-3-3-3--3-3-3-3-3-|
--3--3--3--3-3-3-3-3--3--3-3-|--3-3-3--3--3-3-3-3--3-3-3-3-3-|
--0--0--0--0-0-0-0-0--0--0-0-|--0-2-2--2--2-2-2-2--2-2-2-2-2-|
--2--2--2--2-2-2-0-0--0--0-0-|--0-0-0--0--0-2-2-2--2-2-2-2-2-|
--2--2--2--2-2-2-2-2--2--2-2-|--2-----------0-0-0--0-0-0-0-0-|
--0--0--0--0-0-0-3-3--3--3-3-|--3----------------------------|


                                                              
--3--3--3--3-3-3-3-3--3--3-3-|--3-3-3--3--3-3-3-3--3-3-3-3-3-|
--3--3--3--3-3-3-3-3--3--3-3-|--3-3-3--3--3-3-3-3--3-3-3-3-3-|
--0--0--0--0-0-0-0-0--0--0-0-|--0-2-2--2--2-2-2-2--2-2-2-2-2-|
--2--2--2--2-2-2-0-0--0--0-0-|--0-0-0--0--0-2-2-2--2-2-2-2-2-|
--2--2--2--2-2-2-2-2--2--2-2-|--2-----------0-0-0--0-0-0-0-0-|
--0--0--0--0-0-0-3-3--3--3-3-|--3----------------------------|


                                                              
--3--3--3--3-3-3-3-3--3--3-3-|--3-3-3--3--3-3-3-3--3-3-3-3-3-|
--3--3--3--3-3-3-3-3--3--3-3-|--3-3-3--3--3-3-3-3--3-3-3-3-3-|
--0--0--0--0-0-0-0-0--0--0-0-|--0-2-2--2--2-2-2-2--2-2-2-2-2-|
--2--2--2--2-2-2-0-0--0--0-0-|--0-0-0--0--0-2-2-2--2-2-2-2-2-|
--2--2--2--2-2-2-2-2--2--2-2-|--2-----------0-0-0--0-0-0-0-0-|
--0--0--0--0-0-0-3-3--3--3-3-|--3----------------------------|


                                                              
--3--3--3--3-3-3-3-3--3--3-3-|--3-3-3--3--3-3-3-3--3-3-3-3-3-|
--3--3--3--3-3-3-3-3--3--3-3-|--3-3-3--3--3-3-3-3--3-3-3-3-3-|
--0--0--0--0-0-0-0-0--0--0-0-|--0-2-2--2--2-2-2-2--2-2-2-2-2-|
--2--2--2--2-2-2-0-0--0--0-0-|--0-0-0--0--0-2-2-2--2-2-2-2-2-|
--2--2--2--2-2-2-2-2--2--2-2-|--2-----------0-0-0--0-0-0-0-0-|
--0--0--0--0-0-0-3-3--3--3-3-|--3----------------------------|


                                                              
--3--3--3--3-3-3-3-3--3--3-3-|--3-3-3--3--3-3-3-3--3-3-3-3-3-|
--3--3--3--3-3-3-3-3--3--3-3-|--3-3-3--3--3-3-3-3--3-3-3-3-3-|
--0--0--0--0-0-0-0-0--0--0-0-|--0-2-2--2--2-2-2-2--2-2-2-2-2-|
--2--2--2--2-2-2-0-0--0--0-0-|--0-0-0--0--0-2-2-2--2-2-2-2-2-|
--2--2--2--2-2-2-2-2--2--2-2-|--2-----------0-0-0--0-0-0-0-0-|
--0--0--0--0-0-0-3-3--3--3-3-|--3----------------------------|


                                                              
--3--3--3-3-3-3--3-3-3-3--3-3-|--3-3-3--3--3-3--3-3-3-3--3-3-|
--3--3--3-3-3-3--3-3-3-3--3-3-|--3-3-3--3--3-3--3-3-3-3--3-3-|
--0--0--0-0-0-2--2-2-2-2--2-2-|--2-2-2--2--2-2--2-2-2-2--2-2-|
--2--2--2-2-2-0--0-0-0-0--0-0-|--2-2-2--2--2-2--2-2-2-2--2-2-|
--3--3--3-3-3-----------------|--0-0-0--0--0-0--0-0-0-0--0-0-|
------------------------------|------------------------------|


                                                              
--3--3--3--3-3-3-3-3--3--3-3-|--3-3-3--3--3-3-3-3--3-3-3-3-3-|
--3--3--3--3-3-3-3-3--3--3-3-|--3-3-3--3--3-3-3-3--3-3-3-3-3-|
--0--0--0--0-0-0-0-0--0--0-0-|--0-2-2--2--2-2-2-2--2-2-2-2-2-|
--2--2--2--2-2-2-0-0--0--0-0-|--0-0-0--0--0-2-2-2--2-2-2-2-2-|
--2--2--2--2-2-2-2-2--2--2-2-|--2-----------0-0-0--0-0-0-0-0-|
--0--0--0--0-0-0-3-3--3--3-3-|--3----------------------------|


                                                              
--3--3--3--3-3-3-3-3--3--3-3-|--3-3-3--3--3-3-3-3--3-3-3-3-3-|
--3--3--3--3-3-3-3-3--3--3-3-|--3-3-3--3--3-3-3-3--3-3-3-3-3-|
--0--0--0--0-0-0-0-0--0--0-0-|--0-2-2--2--2-2-2-2--2-2-2-2-2-|
--2--2--2--2-2-2-0-0--0--0-0-|--0-0-0--0--0-2-2-2--2-2-2-2-2-|
--2--2--2--2-2-2-2-2--2--2-2-|--2-----------0-0-0--0-0-0-0-0-|
--0--0--0--0-0-0-3-3--3--3-3-|--3----------------------------|


                                                              
--3--3--3--3-3-3-3-3--3--3-3-|--3-3-3--3--3-3-3-3--3-3-3-3-3-|
--3--3--3--3-3-3-3-3--3--3-3-|--3-3-3--3--3-3-3-3--3-3-3-3-3-|
--0--0--0--0-0-0-0-0--0--0-0-|--0-2-2--2--2-2-2-2--2-2-2-2-2-|
--2--2--2--2-2-2-0-0--0--0-0-|--0-0-0--0--0-2-2-2--2-2-2-2-2-|
--2--2--2--2-2-2-2-2--2--2-2-|--2-----------0-0-0--0-0-0-0-0-|
--0--0--0--0-0-0-3-3--3--3-3-|--3----------------------------|


                                                              
--3--3--3--3-3-3-3-3--3--3-3-|--3-3-3--3--3-3-3-3--3-3-3-3-3-|
--3--3--3--3-3-3-3-3--3--3-3-|--3-3-3--3--3-3-3-3--3-3-3-3-3-|
--0--0--0--0-0-0-0-0--0--0-0-|--0-2-2--2--2-2-2-2--2-2-2-2-2-|
--2--2--2--2-2-2-0-0--0--0-0-|--0-0-0--0--0-2-2-2--2-2-2-2-2-|
--2--2--2--2-2-2-2-2--2--2-2-|--2-----------0-0-0--0-0-0-0-0-|
--0--0--0--0-0-0-3-3--3--3-3-|--3----------------------------|


                                                         
--3--3--3---3-2-2-2--2--2--|--0--0--0--0--0--0-0-0-0-0--|
--1--1--1---1-3-3-3--3--3--|--0--0--0--0--0--0-0-0-0-0--|
--0--0--0---0-2-2-2--2--2--|--0--0--0--0--0--0-0-0-0-0--|
--2--2--2---2-0-0-0--0--0--|--2--2--2--2--2--2-2-2-2-2--|
--3--3--3---3--------------|--2--2--2--2--2--2-2-2-2-2--|
---------------------------|--0--0--0--0--0--0-0-0-0-0--|


                                                         
--3--3--3---3-2-2-2--2--2--|--0--0--0--0--0--0-0-0-0-0--|
--1--1--1---1-3-3-3--3--3--|--0--0--0--0--0--0-0-0-0-0--|
--0--0--0---0-2-2-2--2--2--|--0--0--0--0--0--0-0-0-0-0--|
--2--2--2---2-0-0-0--0--0--|--2--2--2--2--2--2-2-2-2-2--|
--3--3--3---3--------------|--2--2--2--2--2--2-2-2-2-2--|
---------------------------|--0--0--0--0--0--0-0-0-0-0--|


                                                       
--3--3--3---3-2-2-2--2--2--|--3----3----0--0-0-0-0-0--|
--1--1--1---1-3-3-3--3--3--|--3----3----0--0-0-0-0-0--|
--0--0--0---0-2-2-2--2--2--|--0----0----0--0-0-0-0-0--|
--2--2--2---2-0-0-0--0--0--|--0----0----2--2-2-2-2-2--|
--3--3--3---3--------------|--2----2----2--2-2-2-2-2--|
---------------------------|--3----2----0--0-0-0-0-0--|


                                                          
--3--3--3--3--3--3-3-3-3-3--|--3--3--3--3--3--3-3-3-3-3--|
--3--3--3--3--3--3-3-3-3-3--|--3--3--3--3--3--3-3-3-3-3--|
--2--2--2--2--2--2-2-2-2-2--|--2--2--2--2--2--2-2-2-2-2--|
--2--2--2--2--2--2-2-2-2-2--|--2--2--2--2--2--2-2-2-2-2--|
--0--2--0--0--0--0-0-0-0-0--|--0--2--0--0--0--0-0-0-0-0--|
--0--0--0--0--0--0-0-0-0-0--|--0--0--0--0--0--0-0-0-0-0--|


                                                      
--3--3--3---3-3--3--3--3--|--3--3--3---3-3--3--3--3--|
--3--3--3---3-3--3--3--3--|--3--3--3---3-3--3--3--3--|
--0--0--0---0-0--0--0--0--|--0--0--0---0-0--0--0--0--|
--2--2--2---2-2--2--2--2--|--0--0--0---0-2--2--2--2--|
--3--3--3---3-2--2--2--2--|--2--2--2---2-2--2--2--2--|
--------------0--0--0--0--|--3--3--3---3-0--0--0--0--|


                                                      
--3--3--3---3-3--3--3--3--|--3--3--3---3-3--3--3--3--|
--3--3--3---3-3--3--3--3--|--3--3--3---3-3--3--3--3--|
--0--0--0---0-0--0--0--0--|--0--0--0---0-0--0--0--0--|
--2--2--2---2-2--2--2--2--|--0--0--0---0-2--2--2--2--|
--3--3--3---3-2--2--2--2--|--2--2--2---2-2--2--2--2--|
--------------0--0--0--0--|--3--3--3---3-0--0--0--0--|


                                                      
--3--3--3---3-3--3--3--3--|--3--3--3---3-3--3--3--3--|
--3--3--3---3-3--3--3--3--|--3--3--3---3-3--3--3--3--|
--0--0--0---0-0--0--0--0--|--0--0--0---0-0--0--0--0--|
--2--2--2---2-2--2--2--2--|--0--0--0---0-2--2--2--2--|
--3--3--3---3-2--2--2--2--|--2--2--2---2-2--2--2--2--|
--------------0--0--0--0--|--3--3--3---3-0--0--0--0--|


                                                          
--3--3--3---3-3--3--3--3--|--3----------------|----------|
--3--3--3---3-3--3--3--3--|--3----------------|----------|
--0--0--0---0-0--0--0--0--|--0----------------|----------|
--2--2--2---2-2--2--2--2--|--0----------------|----------|
--3--3--3---3-2--2--2--2--|--2----------------|----------|
--------------0--0--0--0--|--3----------------|----------|


                                                       
----------3-3-3-3--3-3--|--3--3--3--3-3-3-3-3--3--3-3-|
----------3-3-3-3--3-3--|--3--3--3--3-3-3-3-3--3--3-3-|
----------2-2-2-2--2-2--|--0--0--0--0-0-0-0-0--0--0-0-|
----------2-2-2-2--2-2--|--2--2--2--2-2-2-0-0--0--0-0-|
----------0-0-0-0--0-0--|--2--2--2--2-2-2-2-2--2--2-2-|
------------------------|--0--0--0--0-0-0-3-3--3--3-3-|


                                                              
--3-3-3--3--3-3-3-3--3-3-3-3-3-|--3--3--3--3-3-3-3-3--3--3-3-|
--3-3-3--3--3-3-3-3--3-3-3-3-3-|--3--3--3--3-3-3-3-3--3--3-3-|
--0-2-2--2--2-2-2-2--2-2-2-2-2-|--0--0--0--0-0-0-0-0--0--0-0-|
--0-0-0--0--0-2-2-2--2-2-2-2-2-|--2--2--2--2-2-2-0-0--0--0-0-|
--2-----------0-0-0--0-0-0-0-0-|--2--2--2--2-2-2-2-2--2--2-2-|
--3----------------------------|--0--0--0--0-0-0-3-3--3--3-3-|


                                                              
--3-3-3--3--3-3-3-3--3-3-3-3-3-|--3--3--3--3-3-3-3-3--3--3-3-|
--3-3-3--3--3-3-3-3--3-3-3-3-3-|--3--3--3--3-3-3-3-3--3--3-3-|
--0-2-2--2--2-2-2-2--2-2-2-2-2-|--0--0--0--0-0-0-0-0--0--0-0-|
--0-0-0--0--0-2-2-2--2-2-2-2-2-|--2--2--2--2-2-2-0-0--0--0-0-|
--2-----------0-0-0--0-0-0-0-0-|--2--2--2--2-2-2-2-2--2--2-2-|
--3----------------------------|--0--0--0--0-0-0-3-3--3--3-3-|


                                                              
--3-3-3--3--3-3-3-3--3-3-3-3-3-|--3--3--3--3-3-3-3-3--3--3-3-|
--3-3-3--3--3-3-3-3--3-3-3-3-3-|--3--3--3--3-3-3-3-3--3--3-3-|
--0-2-2--2--2-2-2-2--2-2-2-2-2-|--0--0--0--0-0-0-0-0--0--0-0-|
--0-0-0--0--0-2-2-2--2-2-2-2-2-|--2--2--2--2-2-2-0-0--0--0-0-|
--2-----------0-0-0--0-0-0-0-0-|--2--2--2--2-2-2-2-2--2--2-2-|
--3----------------------------|--0--0--0--0-0-0-3-3--3--3-3-|


                                                            
--3-3-3--3--3-3-3-3--3-3-3-3-3-|--3--3--3---3-2-2-2--2--2--|
--3-3-3--3--3-3-3-3--3-3-3-3-3-|--1--1--1---1-3-3-3--3--3--|
--0-2-2--2--2-2-2-2--2-2-2-2-2-|--0--0--0---0-2-2-2--2--2--|
--0-0-0--0--0-2-2-2--2-2-2-2-2-|--2--2--2---2-0-0-0--0--0--|
--2-----------0-0-0--0-0-0-0-0-|--3--3--3---3--------------|
--3----------------------------|---------------------------|


                                                         
--0--0--0--0--0--0-0-0-0-0--|--3--3--3---3-2-2-2--2--2--|
--0--0--0--0--0--0-0-0-0-0--|--1--1--1---1-3-3-3--3--3--|
--0--0--0--0--0--0-0-0-0-0--|--0--0--0---0-2-2-2--2--2--|
--2--2--2--2--2--2-2-2-2-2--|--2--2--2---2-0-0-0--0--0--|
--2--2--2--2--2--2-2-2-2-2--|--3--3--3---3--------------|
--0--0--0--0--0--0-0-0-0-0--|---------------------------|


                                                         
--0--0--0--0--0--0-0-0-0-0--|--3--3--3---3-2-2-2--2--2--|
--0--0--0--0--0--0-0-0-0-0--|--1--1--1---1-3-3-3--3--3--|
--0--0--0--0--0--0-0-0-0-0--|--0--0--0---0-2-2-2--2--2--|
--2--2--2--2--2--2-2-2-2-2--|--2--2--2---2-0-0-0--0--0--|
--2--2--2--2--2--2-2-2-2-2--|--3--3--3---3--------------|
--0--0--0--0--0--0-0-0-0-0--|---------------------------|


                                                        
--3----3----0--0-0-0-0-0--|--3--3--3--3--3--3-3-3-3-3--|
--3----3----0--0-0-0-0-0--|--3--3--3--3--3--3-3-3-3-3--|
--0----0----0--0-0-0-0-0--|--2--2--2--2--2--2-2-2-2-2--|
--0----0----2--2-2-2-2-2--|--2--2--2--2--2--2-2-2-2-2--|
--2----2----2--2-2-2-2-2--|--0--2--0--0--0--0-0-0-0-0--|
--3----2----0--0-0-0-0-0--|--0--0--0--0--0--0-0-0-0-0--|


                                                        
--3--3--3--3--3--3-3-3-3-3--|--3--3--3---3-3--3--3--3--|
--3--3--3--3--3--3-3-3-3-3--|--3--3--3---3-3--3--3--3--|
--2--2--2--2--2--2-2-2-2-2--|--0--0--0---0-0--0--0--0--|
--2--2--2--2--2--2-2-2-2-2--|--2--2--2---2-2--2--2--2--|
--0--2--0--0--0--0-0-0-0-0--|--3--3--3---3-2--2--2--2--|
--0--0--0--0--0--0-0-0-0-0--|--------------0--0--0--0--|


                                                      
--3--3--3---3-3--3--3--3--|--3--3--3---3-3--3--3--3--|
--3--3--3---3-3--3--3--3--|--3--3--3---3-3--3--3--3--|
--0--0--0---0-0--0--0--0--|--0--0--0---0-0--0--0--0--|
--0--0--0---0-2--2--2--2--|--2--2--2---2-2--2--2--2--|
--2--2--2---2-2--2--2--2--|--3--3--3---3-2--2--2--2--|
--3--3--3---3-0--0--0--0--|--------------0--0--0--0--|


                                                      
--3--3--3---3-3--3--3--3--|--3--3--3---3-3--3--3--3--|
--3--3--3---3-3--3--3--3--|--3--3--3---3-3--3--3--3--|
--0--0--0---0-0--0--0--0--|--0--0--0---0-0--0--0--0--|
--0--0--0---0-2--2--2--2--|--2--2--2---2-2--2--2--2--|
--2--2--2---2-2--2--2--2--|--3--3--3---3-2--2--2--2--|
--3--3--3---3-0--0--0--0--|--------------0--0--0--0--|


                                                      
--3--3--3---3-3--3--3--3--|--3--3--3---3-3--3--3--3--|
--3--3--3---3-3--3--3--3--|--3--3--3---3-3--3--3--3--|
--0--0--0---0-0--0--0--0--|--0--0--0---0-0--0--0--0--|
--0--0--0---0-2--2--2--2--|--2--2--2---2-2--2--2--2--|
--2--2--2---2-2--2--2--2--|--3--3--3---3-2--2--2--2--|
--3--3--3---3-0--0--0--0--|--------------0--0--0--0--|


                                                      
--3--3--3---3-3--3--3--3--|--3--3--3---3-3--3--3--3--|
--3--3--3---3-3--3--3--3--|--3--3--3---3-3--3--3--3--|
--0--0--0---0-0--0--0--0--|--0--0--0---0-0--0--0--0--|
--0--0--0---0-2--2--2--2--|--2--2--2---2-2--2--2--2--|
--2--2--2---2-2--2--2--2--|--3--3--3---3-2--2--2--2--|
--3--3--3---3-0--0--0--0--|--------------0--0--0--0--|


                                                      
--3--3--3---3-3--3--3--3--|--3--3--3---3-3--3--3--3--|
--3--3--3---3-3--3--3--3--|--3--3--3---3-3--3--3--3--|
--0--0--0---0-0--0--0--0--|--0--0--0---0-0--0--0--0--|
--0--0--0---0-2--2--2--2--|--2--2--2---2-2--2--2--2--|
--2--2--2---2-2--2--2--2--|--3--3--3---3-2--2--2--2--|
--3--3--3---3-0--0--0--0--|--------------0--0--0--0--|


                                                      
--3--3--3---3-3--3--3--3--|--3--3--3---3-3--3--3--3--|
--3--3--3---3-3--3--3--3--|--3--3--3---3-3--3--3--3--|
--0--0--0---0-0--0--0--0--|--0--0--0---0-0--0--0--0--|
--0--0--0---0-2--2--2--2--|--2--2--2---2-2--2--2--2--|
--2--2--2---2-2--2--2--2--|--3--3--3---3-2--2--2--2--|
--3--3--3---3-0--0--0--0--|--------------0--0--0--0--|


                                                      
--3--3--3---3-3--3--3--3--|--3--3--3---3-3--3--3--3--|
--3--3--3---3-3--3--3--3--|--3--3--3---3-3--3--3--3--|
--0--0--0---0-0--0--0--0--|--0--0--0---0-0--0--0--0--|
--0--0--0---0-2--2--2--2--|--2--2--2---2-2--2--2--2--|
--2--2--2---2-2--2--2--2--|--3--3--3---3-2--2--2--2--|
--3--3--3---3-0--0--0--0--|--------------0--0--0--0--|


                                                      
--3--3--3---3-3--3--3--3--|--3--3--3---3-3--3--3--3--|
--3--3--3---3-3--3--3--3--|--3--3--3---3-3--3--3--3--|
--0--0--0---0-0--0--0--0--|--0--0--0---0-0--0--0--0--|
--0--0--0---0-2--2--2--2--|--2--2--2---2-2--2--2--2--|
--2--2--2---2-2--2--2--2--|--3--3--3---3-2--2--2--2--|
--3--3--3---3-0--0--0--0--|--------------0--0--0--0--|


                                                      
--3--3--3---3-3--3--3--3--|--3--3--3---3-3--3--3--3--|
--3--3--3---3-3--3--3--3--|--3--3--3---3-3--3--3--3--|
--0--0--0---0-0--0--0--0--|--0--0--0---0-0--0--0--0--|
--0--0--0---0-2--2--2--2--|--2--2--2---2-2--2--2--2--|
--2--2--2---2-2--2--2--2--|--3--3--3---3-2--2--2--2--|
--3--3--3---3-0--0--0--0--|--------------0--0--0--0--|


                                                      
--3--3--3---3-3--3--3--3--|--3--3--3---3-3--3--3--3--|
--3--3--3---3-3--3--3--3--|--3--3--3---3-3--3--3--3--|
--0--0--0---0-0--0--0--0--|--0--0--0---0-0--0--0--0--|
--0--0--0---0-2--2--2--2--|--2--2--2---2-2--2--2--2--|
--2--2--2---2-2--2--2--2--|--3--3--3---3-2--2--2--2--|
--3--3--3---3-0--0--0--0--|--------------0--0--0--0--|


                                                      
--3--3--3---3-3--3--3--3--|--3--3--3---3-3--3--3--3--|
--3--3--3---3-3--3--3--3--|--3--3--3---3-3--3--3--3--|
--0--0--0---0-0--0--0--0--|--0--0--0---0-0--0--0--0--|
--0--0--0---0-2--2--2--2--|--2--2--2---2-2--2--2--2--|
--2--2--2---2-2--2--2--2--|--3--3--3---3-2--2--2--2--|
--3--3--3---3-0--0--0--0--|--------------0--0--0--0--|


                                                      
--3--3--3---3-3--3--3--3--|--3--3--3---3-3--3--3--3--|
--3--3--3---3-3--3--3--3--|--3--3--3---3-3--3--3--3--|
--0--0--0---0-0--0--0--0--|--0--0--0---0-0--0--0--0--|
--0--0--0---0-2--2--2--2--|--2--2--2---2-2--2--2--2--|
--2--2--2---2-2--2--2--2--|--3--3--3---3-2--2--2--2--|
--3--3--3---3-0--0--0--0--|--------------0--0--0--0--|


                                                      
--3--3--3---3-3--3--3--3--|--3--3--3---3-3--3--3--3--|
--3--3--3---3-3--3--3--3--|--3--3--3---3-3--3--3--3--|
--0--0--0---0-0--0--0--0--|--0--0--0---0-0--0--0--0--|
--0--0--0---0-2--2--2--2--|--2--2--2---2-2--2--2--2--|
--2--2--2---2-2--2--2--2--|--3--3--3---3-2--2--2--2--|
--3--3--3---3-0--0--0--0--|--------------0--0--0--0--|


                                                      
--3--3--3---3-3--3--3--3--|--3--3--3---3-3--3--3--3--|
--3--3--3---3-3--3--3--3--|--3--3--3---3-3--3--3--3--|
--0--0--0---0-0--0--0--0--|--0--0--0---0-0--0--0--0--|
--0--0--0---0-2--2--2--2--|--2--2--2---2-2--2--2--2--|
--2--2--2---2-2--2--2--2--|--3--3--3---3-2--2--2--2--|
--3--3--3---3-0--0--0--0--|--------------0--0--0--0--|


                                                                               
--3--3--3---3-3--3--3--3--|--3--3--3---3-3--3--3--3--|--3--3-3-3-3-3----------|
--3--3--3---3-3--3--3--3--|--3--3--3---3-3--3--3--3--|--3--3-3-3-3-3----------|
--0--0--0---0-0--0--0--0--|--0--0--0---0-0--0--0--0--|--0--0-0-0-0-0----------|
--0--0--0---0-2--2--2--2--|--2--2--2---2-2--2--2--2--|--0--0-0-0-2-2----------|
--2--2--2---2-2--2--2--2--|--3--3--3---3-2--2--2--2--|--2--2-2-2-2-2----------|
--3--3--3---3-0--0--0--0--|--------------0--0--0--0--|--3--3-3-3-0-0----------|


           
----|----||
----|----||
----|----||
----|----||
----|----||
----|----||
            
Submit corrections

comments powered by Disqus
↑ Back to top | Oasis Tabs for Vvonderwall. Lyrics for acoustic guitar and electric guitar. Tablatures and chords are parodies/interpretations of the original songs. You may use it for private study, scholarship, research or language learning purposes only