» » »

Oasis, The Swamp Song Tabs (ver.3)

Artists:  A B C D E F G H I J K L M N O P Q R S T U V W X Y Z # 

The Swamp Song Tabs (ver.3)

Oasis Tabs
Rating:
0/5 (0 votes)
The Swamp Song lessons Tabs too difficult? Try these video lessons and learn fast
                h = hammer on
p = pull off
b = bend
r= release

Standard Tuning

|---------------------------------------------------|
|---------------------------------------------------|
|-----------0-2-----------------------------0-2-----|
|-----------------------------0---------------------|
|--0-0-0-0-------0-0-0-0-0-3-----0-0-0-0-0-------0--|
|---------------------------------------------------|

|---------------------------------------------------|
|---------------------------------------------------|
|-----------------------------------0-2-------------|
|------5---5-------5--5-----------------------------|
|--5h7--------5h7---------0-0-0-0--------0-0-0-0-0-3|
|---------------------------------------------------|

|---------------------------------------------------|
|---------------------------------------------------|
|---------------------------------------------------|
|--0------------------------------------------------|
|----0----------------------------------------------|
|---------------------------------------------------|

|---------------------------------------------------|
|---------------------------------------------------|
|-----------0-2--------------0-2---------------0-2--|
|---------------------------------3-----------------|
|--0-0-0-0-------0-0-0-0-0------------0-0-0-0------0|
|---------------------------------------------------|

|---------------------------------------------------|
|---------------------------------------------------|
|--0-2--------------------0-2---------0--0-------0-0|
|------------0-------------------0h2--------0h2-----|
|------0-3------0-0-0-0-0-----0---------------------|
|---------------------------------------------------|



This is the solo part (Noel)

|----------------------------------------------8-10-|
|--8-8-10p8--8-8-8-8-10-10--8-10--10-10-10--10------|
|---------------------------------------------------|
|---------------------------------------------------|
|---------------------------------------------------|
|---------------------------------------------------|

|--10-8------8-10---10-8--10b11--8--10p8------8--8--|
|--------10-------------------------------10--------|
|---------------------------------------------------|
|---------------------------------------------------|
|---------------------------------------------------|
|---------------------------------------------------|

|--10b12r11----10---10p8----------------------------|
|-------------------------10------------------------|
|---------------------------------------------------|
|------------------------------------2--------------|
|------------------------------------2--------------|
|------------------------------------0--------------|
            
Submit corrections

comments powered by Disqus
↑ Back to top | Oasis Tabs for The Swamp Song. Lyrics for acoustic guitar and electric guitar. Tablatures and chords are parodies/interpretations of the original songs. You may use it for private study, scholarship, research or language learning purposes only