» » »

Oasis, Hindu Times Tabs (ver.5)

Artists:  A B C D E F G H I J K L M N O P Q R S T U V W X Y Z # 

Hindu Times Tabs (ver.5)

Oasis Tabs
Rating:
0/5 (0 votes)
Hindu Times lessons Tabs too difficult? Try these video lessons and learn fast
                (Complete)
The strumming for this song is so awesome once you realize it by listening closely.
But once you get it, nothing's stopping you from dominating. Muaha.

Chords Used:
B:     224442
Bsus4: 224452
Bsus2: 224422
E:     022100
A:     002220

Playing B Chord
Stroke down, up, down d,d,d,d,u,d,d,d,d,u,d,dud,dud

Tab key:

p - Pull off
h - Hammer on
~#~ - Vibrato
**Opening Riff**

E:X
A:X
D:X
G:--------------------------------------------------------2--2--2--------
B:---4-----~4~--0--0--0--4-----------~4~----4-----~4~--0-----------0--0--
E:------0-------------------0--2--0------------0-------------------------

  B                                          Bsus4     Bsus2                                                      Bsus4   Bsus2
I get up, when I'm down. I can't swim but my soul wont drown. I do believe, I've got flare. I've got speed, and I walk on air.


E                                        B         E                                          B
Cause god gave me soul and all rock and roll babe. Cause god gave me soul and all rock and roll babe.

A                     E             B    A                   E              B
And I get so high I just can't feel it, And I get so high I just can't feel it

D              E                           G                     A                B
In and out my brain, runnin' through my veins, Cos you're my sunshine, you're my rain

B                                                     Bsus4    Bsus2
There's a light, that shines on, Shines on me, and it keeps me warm

B                                                  Bsus4       Bsus2
It gimme peace, I must say, I can't sleep, cos the world won't wait

E                                        B         E                                        B
Cause god gave me soul and all rock and roll babe. Cause god gave me soul and all rock and roll babe.

A                     E             B    A                   E              B
And I get so high I just can't feel it, And I get so high I just can't feel it

D              E                           G                     A                B
In and out my brain, runnin' through my veins, Cos you're my sunshine, you're my rain


Middle Riff:

E:X
A:X
D:X
G:--------------------------------------------------------2--2--2--------
B:---4-----~4~--0--0--0--4-----------~4~----4-----~4~--0-----------0--0--
E:------0-------------------0--2--0------------0-------------------------

E:X
A:X
D:----------------9--9--9----------------------
G:----9--10--~9~-----------9--10--12--10--~9~--
B:X
E:X

E:X
A:X
D:X
G:----------------------------------------
B:---4-----~4~--0--0--0--4-----------~4~--
E:------0-------------------0--2--0-------

E:X
A:X
D:----------------9--9--9----------------------
G:----9--10--~9~-----------9--10--12--10--~9~--
B:X
E:X

E:X
A:X
D:X
G:----------------------------------------
B:---4-----~4~--0--0--0--4-----------~4~--
E:------0-------------------0--2--0-------

A                     E             B    A                   E              B
And I get so high I just can't feel it, And I get so high I just can't feel it

A                     E             B    A                   E              B
And I get so high I just can't feel it, And I get so high I just can't feel it

D              E                           G                     A                B
In and out my brain, runnin' through my veins, Cos you're my sunshine, you're my rain


E:X
A:X
D:X
G:--------------------------------------------------------2--2--2--------2-----
B:---4-----~4~--0--0--0--4-----------~4~----4-----~4~--0-----------0--0-----0--
E:------0-------------------0--2--0------------0-------------------------------
            
Submit corrections

comments powered by Disqus
↑ Back to top | Oasis Tabs for Hindu Times. Lyrics for acoustic guitar and electric guitar. Tablatures and chords are parodies/interpretations of the original songs. You may use it for private study, scholarship, research or language learning purposes only