» » »

Oasis, Hindu Times Tabs (ver.3)

Artists:  A B C D E F G H I J K L M N O P Q R S T U V W X Y Z # 

Hindu Times Tabs (ver.3)

Oasis Tabs
 Rating:
4/5 (4 votes)
Hindu Times lessons Tabs too difficult? Try these video lessons and learn fast
                band - oasis
song - the hindu times


this is the 4 star tab, but iv personalised it. i think its better, but you can choose.

1. Intro


 B, B, B, E x2    (With Riff 3 2nd time)

Main Riff
|----------------------|
|----------------------|
|-8-9-8-----8-9-11-9-8-|
|-------9-9------------|
|----------------------|
|----------------------|

Riff 2
|--------------------------|
|--------------------------|
|-8-9-8--------------------|
|-------9-7-7-7-7-9--------|
|--------------------------|
|--------------------------|


Riff 3

|----------------------|--------------------------|
|----------------------|--------------------------|
|-8-9-8-----8-9-11-9-8-|-8-9-8--------------------|
|-------9-9------------|-------9-7-7-7-7-9--------|
|----------------------|--------------------------|
|----------------------|--------------------------|

Intro

 B, B, B, E x2    (With Riff 3 2nd time)

Verse

     B                                         E
I get up, when I\'m down. I can\'t swim, but my soul won\'t drown
        B                                      E
I do believe, I got flare. I got speed, and I walk on air.

Pre-chorus

E                                          B
  Cos god gave me soul, we got rock and roll, babe  x2    (Main Riff after every line)

Chorus

      F#             E                B
And I get so high I just can\'t feel it    (Riff 2)
      F#             E                B
And I get so high I just can\'t feel it          
G                A                       G
In and out my brain, running through my veins,
              A                   B
You\'re my sunshine, you\'re my rain   (Riff 3)

Repeat Verse, Pre-chorus and Chorus.

Solo chords

B, B, B, E,  E, E, B, B, E, E, B, B


Solo
2x
|----------------------|----------------------------|
|----------------------|---9-10-9-----9-10-12-10-9--|
|-8-9-8-----8-9-11-9-8-|----------9-9---------------|   
|-------9-9------------|----------------------------|   
|----------------------|----------------------------|
|----------------------|----------------------------|


Last chorus

      F#             E                B
And I get so high I just can\'t feel it  x4 (Riff 2 after each line)
G              A                         G
In and out my brain, running through my veins
            A                      B
You\'re my sunshine, you\'re my rain

B, B, B, E   x2  (With Riff 3  x2)

End on B.

and there you have it
            
Submit corrections

comments powered by Disqus
↑ Back to top | Oasis Tabs for Hindu Times. Lyrics for acoustic guitar and electric guitar. Tablatures and chords are parodies/interpretations of the original songs. You may use it for private study, scholarship, research or language learning purposes only