» » »

Hindu Times Tabs (ver.2)

Artists:  A B C D E F G H I J K L M N O P Q R S T U V W X Y Z # 

Hindu Times Tabs (ver.2)

Oasis
Rating:
0/5 (0 votes)

Tabs too difficult? Try these video lessons and learn fast.
                
**Capo 2nd Fret**

**Chords**
A5{x022xx}  A11{x0000x}  D5{xx023x}  Am11{x0001x}  D{xx0232}
 E{0330xx}    C{x32010}   F{1332xx}     G{320003}

Intro

|: A5 | A5 A11 A5 A11 | A5 | A11 D5 | A5 A11 A5 | A5 A11 A5 A11 A5 | A11 Am11 :|


Verse 1
A5  A11  A5
I get up when I'm down.
                     D5
I can't swim, but my soul won't drown.
A11 A5 A11 A5
I do believe, I got flare.
                  D5           A5  A11
I got speed and I walk on air.


Pre-chorus
D                                        A5
'Cos God gimme soul and all rock 'n' roll (babe)
D                                        A5
'Cos God gimme soul and all rock 'n' roll (babe)


Chorus
          E         D                   A5
And I get so high I just can't feel it.
          E         D                   A5
And I get so high I just can't feel it.
C             D                             F
In and out my brain runnin' through my veins,
               A                       A5
'cos you're my sunshine you're my rain.


E|--------------------||-----------------||--------------|
B|--------------------||-----------------||--------------|
G|-----6--7--6s-------||---6-7-7b----6s--||-----6--7--6s-|
D|-7-7-----------7--7-||-7---------------||-7-7----------|
A|-0-0----------------||-----------------||-0-0----------|
E|--------------------||-----------------||--------------|

E|----------------------||----------------------|
B|----------------------||----------------------|
G|-------11-12-11s------||------11-12-12b----11-|
D|-12-12----------12-12-||--12------------------|
A|----------------------||----------------------|
E|----------------------||----------------------|
            
Tabs too difficult? Try these video lessons and learn fast.




comments powered by Disqus
↑ Back to top | Tablatures and chords are parodies/interpretations of the original songs. You may use it for private study, scholarship, research or language learning purposes only