>
 >
Supersonik

Supersonik Guitar Tabs

Oasis - Supersonik chords, tabs, tablatures, lyrics

Guitar lessons | Add/correct | Request | Top 50 tabs Artists:  A B C D E F G H I J K L M N O P Q R S T U V W X Y Z 0-9

Supersonik Guitar Tabs – Oasis

CD, Sheet music, Poster

Do you like Supersonik? Share with your friends now
Tabs
Supersonic                                    


                                                                  Noel Gallagher
Guitar 2



                                                                               
E||------------------|------------------|------------------|------------------|
B||------------------|------------------|------------------|------------------|
G||------------------|------------------|------------------|------------------|
D||------------------|------------------|------------------|------------------|
A||------------------|------------------|------------------|------------------|
E||------------------|------------------|------------------|------------------|


                                                                             
-----------0--------------|----------------------|-----------0--------------|
--------------0-----------|----------------------|--------------0-----------|
--------2--------2--------|--2----2--2-----------|--------2--------2--------|
-----4--------------4-----|--2----2--1-----------|-----4--------------4-----|
--4--------------------0--|--0----0--2--------0--|--4--------------------0--|
--------------------------|----------------------|--------------------------|


                                                                         
----------------------|-----------0--------------|----------------------|
----------------------|--------------0-----------|----------------------|
--2----2--2-----------|--------2--------2--------|--2----2--2-----------|
--2----2--1-----------|-----4--------------4-----|--2----2--1-----------|
--0----0--2--------0--|--4--------------------0--|--0----0--2--------0--|
----------------------|--------------------------|----------------------|


                                                                           
-----------0--------------|----------------------|------------------------|
--------------0-----------|----------------------|------------------------|
--------2--------2--------|--2----2--2-----------|------------------------|
-----4--------------4-----|--2----2--1-----------|--4----4-----4----4-----|
--4--------------------0--|--0----0--2--------0--|--4----4-----4----4-----|
--------------------------|----------------------|--2----2--0--2----2--0--|


                                                                             
-------------------------|------------------------|-------------------------|
--2--2--x--4----4--4--x--|------------------------|--2--2--x--4----4--4--x--|
--2--2--x--4----4--4--x--|------------------------|--2--2--x--4----4--4--x--|
--2--2--x--4----4--4--x--|--4----4-----4----4-----|--2--2--x--4----4--4--x--|
--0--0--x--2----2--2--x--|--4----4-----4----4-----|--0--0--x--2----2--2--x--|
-------------------------|--2----2--0--2----2--0--|-------------------------|


                                                                            
------------------------|-------------------------|------------------------|
------------------------|--2--2--x--4----4--4--x--|------------------------|
------------------------|--2--2--x--4----4--4--x--|------------------------|
--4----4-----4----4-----|--2--2--x--4----4--4--x--|--4----4-----4----4-----|
--4----4-----4----4-----|--0--0--x--2----2--2--x--|--4----4-----4----4-----|
--2----2--0--2----2--0--|-------------------------|--2----2--0--2----2--0--|


                                                                             
-------------------------|------------------------|-------------------------|
--2--2--x--4----4--4--x--|------------------------|--2--2--x--4----4--4--x--|
--2--2--x--4----4--4--x--|------------------------|--2--2--x--4----4--4--x--|
--2--2--x--4----4--4--x--|--4----4-----4----4-----|--2--2--x--4----4--4--x--|
--0--0--x--2----2--2--x--|--4----4-----4----4-----|--0--0--x--2----2--2--x--|
-------------------------|--2----2--0--2----2--0--|-------------------------|


                                                                            
------------------------|-------------------------|------------------------|
------------------------|--2--2--x--4----4--4--x--|------------------------|
------------------------|--2--2--x--4----4--4--x--|------------------------|
--4----4-----4----4-----|--2--2--x--4----4--4--x--|--4----4-----4----4-----|
--4----4-----4----4-----|--0--0--x--2----2--2--x--|--4----4-----4----4-----|
--2----2--0--2----2--0--|-------------------------|--2----2--0--2----2--0--|


                                                                             
-------------------------|------------------------|-------------------------|
--2--2--x--4----4--4--x--|------------------------|--2--2--x--4----4--4--x--|
--2--2--x--4----4--4--x--|------------------------|--2--2--x--4----4--4--x--|
--2--2--x--4----4--4--x--|--4----4-----4----4-----|--2--2--x--4----4--4--x--|
--0--0--x--2----2--2--x--|--4----4-----4----4-----|--0--0--x--2----2--2--x--|
-------------------------|--2----2--0--2----2--0--|-------------------------|


                                                                              
--------------------------|-------------------------|------------------------|
--------------------------|-------------------------|------------------------|
--------------------------|-------------------------|------------------------|
--------------------------|-------------------------|--4----4-----4----4--4--|
--2--2--4--2--2--2--4--2--|----2--4--2--2--2--4--2--|--4----4-----4----4--4--|
--0--0--0--0--0--0--0--0--|----0--0--0--0--0--0--0--|--2----2--0--0----0--0--|


                                                      
--------------------------|--------------------------|
--------------------------|--------------------------|
--------3-----------------|--------------------------|
--4--4--4----4--4--x-x-x--|--------------------------|
--4--4--4----4--4--x-x-x--|--2--2--4--2--2--2--4--2--|
--0--0--2----2--2--x-x-x--|--0--0--0--0--0--0--0--0--|


                                                      
--------------------------|--------------------------|
--------------------------|--------------------------|
--------------------------|--6--6--6--6--6--6--6--6--|
--------------------------|--6--6--6--6--6--6--6--6--|
----2--4--2--2--2--4--x-x-|--4--4--4--4--4--4--4--4--|
----0--0--0--0--0--0--x-x-|--------------------------|


                                                                                
--------------------------|-------------------------|----------------2-2-2--x--|
--------------------------|--7----7--7--------------|----------------2-2-2--x--|
--6--6--6--6--6----x-x-x--|--7----7--7--6----6-6-6--|----------------2-2-2--x--|
--6--6--6--6--6----x-x-x--|--7----7--7--7----7-7-7--|--2--2--2--4----4-4-4--x--|
--4--4--4--4--4----x-x-x--|--5----5--5--7----7-7-7--|--2--2--2--4----4-4-4--x--|
--------------------------|-------------5----5-5-5--|--0--0--0--2----2-2-2--x--|


                                                                               
-------------------------|----------------2-2-2--x--|-------------------------|
--7----7--7--------------|----------------2-2-2--x--|--7----7--7--------------|
--7----7--7--6----6-6-6--|----------------2-2-2--x--|--7----7--7--6----6-6-6--|
--7----7--7--7----7-7-7--|--2--2--2--4----4-4-4--x--|--7----7--7--7----7-7-7--|
--5----5--5--7----7-7-7--|--2--2--2--4----4-4-4--x--|--5----5--5--7----7-7-7--|
-------------5----5-5-5--|--0--0--0--2----2-2-2--x--|-------------5----5-5-5--|


                                                                                
----------------2-2-2--x--|-------------------------|----------------2-2-2--x--|
----------------2-2-2--x--|--7----7--7--------------|----------------2-2-2--x--|
----------------2-2-2--x--|--7----7--7--6----6-6-6--|----------------2-2-2--x--|
--2--2--2--4----4-4-4--x--|--7----7--7--7----7-7-7--|--2--2--2--4----4-4-4--x--|
--2--2--2--4----4-4-4--x--|--5----5--5--7----7-7-7--|--2--2--2--4----4-4-4--x--|
--0--0--0--2----2-2-2--x--|-------------5----5-5-5--|--0--0--0--2----2-2-2--x--|


                                                                               
-------------------------|----------2----2-2-2--x-x-|-------------------------|
--7----7--7--------------|----------2----2-2-2--x-x-|--7----7--7--------------|
--7----7--7--6--6--6--1--|----1--1--2----2-2-2--x-x-|--7----7--7--6--6--6--1--|
--7----7--7--7--7--7--2--|----2--2--4----4-4-4--x-x-|--7----7--7--7--7--7--2--|
--5----5--5--7--7--7--2--|----2--2--4----4-4-4--x-x-|--5----5--5--7--7--7--2--|
-------------5--5--5--0--|----0--0--2----2-2-2--x-x-|-------------5--5--5--0--|


                                                                                
----------2----2-2-2--x-x-|-------------------------|----------2----2-2-2--x-x-|
----------2----2-2-2--x-x-|--7----7--7--------------|----------2----2-2-2--x-x-|
----1--1--2----2-2-2--x-x-|--7----7--7--6--6--6--1--|----1--1--2----2-2-2--x-x-|
----2--2--4----4-4-4--x-x-|--7----7--7--7--7--7--2--|----2--2--4----4-4-4--x-x-|
----2--2--4----4-4-4--x-x-|--5----5--5--7--7--7--2--|----2--2--4----4-4-4--x-x-|
----0--0--2----2-2-2--x-x-|-------------5--5--5--0--|----0--0--2----2-2-2--x-x-|


                                                                         
-------------------------|----------2----2-2-2--x-x-|-------------------|
--7----7--7--------------|----------2----2-2-2--x-x-|-------------------|
--7----7--7--6--6--6--1--|----1--1--2----2-2-2--x-x-|-------------------|
--7----7--7--7--7--7--2--|----2--2--4----4-4-4--x-x-|--2----------------|
--5----5--5--7--7--7--2--|----2--2--4----4-4-4--x-x-|--2----------------|
-------------5--5--5--0--|----0--0--2----2-2-2--x-x-|--0----------------|


                                                          
------------------|-------------------|------------------|
------------------|-------------------|------------------|
------------------|--6----------------|------------------|
------------------|--6----------------|------------------|
------------------|--4----------------|------------------|
------------------|-------------------|------------------|


                                                                            
------------------------|-------------------------|------------------------|
------------------------|--2--2--x--4----4--4--x--|------------------------|
------------------------|--2--2--x--4----4--4--x--|------------------------|
--4----4-----4----4-----|--2--2--x--4----4--4--x--|--4----4-----4----4-----|
--4----4-----4----4-----|--0--0--x--2----2--2--x--|--4----4-----4----4-----|
--2----2--0--2----2--0--|-------------------------|--2----2--0--2----2--0--|


                                                                             
-------------------------|------------------------|-------------------------|
--2--2--x--4----4--4--x--|------------------------|--2--2--x--4----4--4--x--|
--2--2--x--4----4--4--x--|------------------------|--2--2--x--4----4--4--x--|
--2--2--x--4----4--4--x--|--4----4-----4----4-----|--2--2--x--4----4--4--x--|
--0--0--x--2----2--2--x--|--4----4-----4----4-----|--0--0--x--2----2--2--x--|
-------------------------|--2----2--0--2----2--0--|-------------------------|


                                                                            
------------------------|-------------------------|------------------------|
------------------------|--2--2--x--4----4--4--x--|------------------------|
------------------------|--2--2--x--4----4--4--x--|------------------------|
--4----4-----4----4-----|--2--2--x--4----4--4--x--|--4----4-----4----4-----|
--4----4-----4----4-----|--0--0--x--2----2--2--x--|--4----4-----4----4-----|
--2----2--0--2----2--0--|-------------------------|--2----2--0--2----2--0--|


                                                                             
-------------------------|------------------------|-------------------------|
--2--2--x--4----4--4--x--|------------------------|--2--2--x--4----4--4--x--|
--2--2--x--4----4--4--x--|------------------------|--2--2--x--4----4--4--x--|
--2--2--x--4----4--4--x--|--4----4-----4----4-----|--2--2--x--4----4--4--x--|
--0--0--x--2----2--2--x--|--4----4-----4----4-----|--0--0--x--2----2--2--x--|
-------------------------|--2----2--0--2----2--0--|-------------------------|


                                                                            
------------------------|-------------------------|------------------------|
------------------------|--2--2--x--4----4--4--x--|------------------------|
------------------------|--2--2--x--4----4--4--x--|------------------------|
--4----4-----4----4-----|--2--2--x--4----4--4--x--|--4----4-----4----4-----|
--4----4-----4----4-----|--0--0--x--2----2--2--x--|--4----4-----4----4-----|
--2----2--0--2----2--0--|-------------------------|--2----2--0--2----2--0--|


                                                                               
-------------------------|--------------------------|-------------------------|
--2--2--x--4----4--4--x--|--------------------------|-------------------------|
--2--2--x--4----4--4--x--|--------------------------|-------------------------|
--2--2--x--4----4--4--x--|--------------------------|-------------------------|
--0--0--x--2----2--2--x--|--2--2--4--2--2--2--4--2--|----2--4--2--2--2--4--2--|
-------------------------|--0--0--0--0--0--0--0--0--|----0--0--0--0--0--0--0--|


                                                                               
------------------------|--------------------------|--------------------------|
------------------------|--------------------------|--------------------------|
------------------------|--------3-----------------|--------------------------|
--4----4-----4----4--4--|--4--4--4----4--4--x-x-x--|--------------------------|
--4----4-----4----4--4--|--4--4--4----4--4--x-x-x--|--2--2--4--2--2--2--4--2--|
--2----2--0--0----0--0--|--0--0--2----2--2--x-x-x--|--0--0--0--0--0--0--0--0--|


                                                      
--------------------------|--------------------------|
--------------------------|--------------------------|
--------------------------|--6--6--6--6--6--6--6--6--|
--------------------------|--6--6--6--6--6--6--6--6--|
----2--4--2--2--2--4--x-x-|--4--4--4--4--4--4--4--4--|
----0--0--0--0--0--0--x-x-|--------------------------|


                                                                                
--------------------------|-------------------------|----------------2-2-2--x--|
--------------------------|--7----7--7--------------|----------------2-2-2--x--|
--6--6--6--6--6----x-x-x--|--7----7--7--6----6-6-6--|----------------2-2-2--x--|
--6--6--6--6--6----x-x-x--|--7----7--7--7----7-7-7--|--2--2--2--4----4-4-4--x--|
--4--4--4--4--4----x-x-x--|--5----5--5--7----7-7-7--|--2--2--2--4----4-4-4--x--|
--------------------------|-------------5----5-5-5--|--0--0--0--2----2-2-2--x--|


                                                                               
-------------------------|----------------2-2-2--x--|-------------------------|
--7----7--7--------------|----------------2-2-2--x--|--7----7--7--------------|
--7----7--7--6----6-6-6--|----------------2-2-2--x--|--7----7--7--6----6-6-6--|
--7----7--7--7----7-7-7--|--2--2--2--4----4-4-4--x--|--7----7--7--7----7-7-7--|
--5----5--5--7----7-7-7--|--2--2--2--4----4-4-4--x--|--5----5--5--7----7-7-7--|
-------------5----5-5-5--|--0--0--0--2----2-2-2--x--|-------------5----5-5-5--|


                                                                                
----------------2-2-2--x--|-------------------------|----------------2-2-2--x--|
----------------2-2-2--x--|--7----7--7--------------|----------------2-2-2--x--|
----------------2-2-2--x--|--7----7--7--6----6-6-6--|----------------2-2-2--x--|
--2--2--2--4----4-4-4--x--|--7----7--7--7----7-7-7--|--2--2--2--4----4-4-4--x--|
--2--2--2--4----4-4-4--x--|--5----5--5--7----7-7-7--|--2--2--2--4----4-4-4--x--|
--0--0--0--2----2-2-2--x--|-------------5----5-5-5--|--0--0--0--2----2-2-2--x--|


                                                                               
-------------------------|----------2----2-2-2--x-x-|-------------------------|
--7----7--7--------------|----------2----2-2-2--x-x-|--7----7--7--------------|
--7----7--7--6--6--6--1--|----1--1--2----2-2-2--x-x-|--7----7--7--6--6--6--1--|
--7----7--7--7--7--7--2--|----2--2--4----4-4-4--x-x-|--7----7--7--7--7--7--2--|
--5----5--5--7--7--7--2--|----2--2--4----4-4-4--x-x-|--5----5--5--7--7--7--2--|
-------------5--5--5--0--|----0--0--2----2-2-2--x-x-|-------------5--5--5--0--|


                                                                                
----------2----2-2-2--x-x-|-------------------------|----------2----2-2-2--x-x-|
----------2----2-2-2--x-x-|--7----7--7--------------|----------2----2-2-2--x-x-|
----1--1--2----2-2-2--x-x-|--7----7--7--6--6--6--1--|----1--1--2----2-2-2--x-x-|
----2--2--4----4-4-4--x-x-|--7----7--7--7--7--7--2--|----2--2--4----4-4-4--x-x-|
----2--2--4----4-4-4--x-x-|--5----5--5--7--7--7--2--|----2--2--4----4-4-4--x-x-|
----0--0--2----2-2-2--x-x-|-------------5--5--5--0--|----0--0--2----2-2-2--x-x-|


                                                                               
-------------------------|----------2----2-2-2--x-x-|-------------------------|
--7----7--7--------------|----------2----2-2-2--x-x-|--7----7--7--------------|
--7----7--7--6--6--6--1--|----1--1--2----2-2-2--x-x-|--7----7--7--6--6--6--1--|
--7----7--7--7--7--7--2--|----2--2--4----4-4-4--x-x-|--7----7--7--7--7--7--2--|
--5----5--5--7--7--7--2--|----2--2--4----4-4-4--x-x-|--5----5--5--7--7--7--2--|
-------------5--5--5--0--|----0--0--2----2-2-2--x-x-|-------------5--5--5--0--|


                                                                                
----------2----2-2-2--x-x-|-------------------------|----------2----2-2-2--x-x-|
----------2----2-2-2--x-x-|--7----7--7--------------|----------2----2-2-2--x-x-|
----1--1--2----2-2-2--x-x-|--7----7--7--6--6--6--1--|----1--1--2----2-2-2--x-x-|
----2--2--4----4-4-4--x-x-|--7----7--7--7--7--7--2--|----2--2--4----4-4-4--x-x-|
----2--2--4----4-4-4--x-x-|--5----5--5--7--7--7--2--|----2--2--4----4-4-4--x-x-|
----0--0--2----2-2-2--x-x-|-------------5--5--5--0--|----0--0--2----2-2-2--x-x-|


                                                                               
-------------------------|----------2----2-2-2--x-x-|-------------------------|
--7----7--7--------------|----------2----2-2-2--x-x-|--7----7--7--------------|
--7----7--7--6--6--6--1--|----1--1--2----2-2-2--x-x-|--7----7--7--6--6--6--1--|
--7----7--7--7--7--7--2--|----2--2--4----4-4-4--x-x-|--7----7--7--7--7--7--2--|
--5----5--5--7--7--7--2--|----2--2--4----4-4-4--x-x-|--5----5--5--7--7--7--2--|
-------------5--5--5--0--|----0--0--2----2-2-2--x-x-|-------------5--5--5--0--|


                                                                                
----------2----2-2-2--x-x-|-------------------------|----------2----2-2-2--x-x-|
----------2----2-2-2--x-x-|--7----7--7--------------|----------2----2-2-2--x-x-|
----1--1--2----2-2-2--x-x-|--7----7--7--6--6--6--1--|----1--1--2----2-2-2--x-x-|
----2--2--4----4-4-4--x-x-|--7----7--7--7--7--7--2--|----2--2--4----4-4-4--x-x-|
----2--2--4----4-4-4--x-x-|--5----5--5--7--7--7--2--|----2--2--4----4-4-4--x-x-|
----0--0--2----2-2-2--x-x-|-------------5--5--5--0--|----0--0--2----2-2-2--x-x-|


                                                                               
-------------------------|----------2----2-2-2--x-x-|-------------------------|
--7----7--7--------------|----------2----2-2-2--x-x-|--7----7--7--------------|
--7----7--7--6--6--6--1--|----1--1--2----2-2-2--x-x-|--7----7--7--6--6--6--1--|
--7----7--7--7--7--7--2--|----2--2--4----4-4-4--x-x-|--7----7--7--7--7--7--2--|
--5----5--5--7--7--7--2--|----2--2--4----4-4-4--x-x-|--5----5--5--7--7--7--2--|
-------------5--5--5--0--|----0--0--2----2-2-2--x-x-|-------------5--5--5--0--|


                                                                                
----------2----2-2-2--x-x-|-------------------------|----------2----2-2-2--x-x-|
----------2----2-2-2--x-x-|--7----7--7--------------|----------2----2-2-2--x-x-|
----1--1--2----2-2-2--x-x-|--7----7--7--6--6--6--1--|----1--1--2----2-2-2--x-x-|
----2--2--4----4-4-4--x-x-|--7----7--7--7--7--7--2--|----2--2--4----4-4-4--x-x-|
----2--2--4----4-4-4--x-x-|--5----5--5--7--7--7--2--|----2--2--4----4-4-4--x-x-|
----0--0--2----2-2-2--x-x-|-------------5--5--5--0--|----0--0--2----2-2-2--x-x-|


                                                       
|--------------------------|----------2----2-2-2--x-x-|
|---7----7--7--------------|----------2----2-2-2--x-x-|
|*--7----7--7--6--6--6--1--|----1--1--2----2-2-2--x-x-|
|*--7----7--7--7--7--7--2--|----2--2--4----4-4-4--x-x-|
|---5----5--5--7--7--7--2--|----2--2--4----4-4-4--x-x-|
|--------------5--5--5--0--|----0--0--2----2-2-2--x-x-|


                                                                               
-------------------------|----------2----2-2-2--x-x-|-------------------------|
--7----7--7--------------|----------2----2-2-2--x-x-|--7----7--7--------------|
--7----7--7--6--6--6--1--|----1--1--2----2-2-2--x-x-|--7----7--7--6--6--6--1--|
--7----7--7--7--7--7--2--|----2--2--4----4-4-4--x-x-|--7----7--7--7--7--7--2--|
--5----5--5--7--7--7--2--|----2--2--4----4-4-4--x-x-|--5----5--5--7--7--7--2--|
-------------5--5--5--0--|----0--0--2----2-2-2--x-x-|-------------5--5--5--0--|


                                                     
----------2----2-2-2--x-x-|-------------------------|
----------2----2-2-2--x-x-|--7----7--7--------------|
----1--1--2----2-2-2--x-x-|--7----7--7--6--6--6--1--|
----2--2--4----4-4-4--x-x-|--7----7--7--7--7--7--2--|
----2--2--4----4-4-4--x-x-|--5----5--5--7--7--7--2--|
----0--0--2----2-2-2--x-x-|-------------5--5--5--0--|


                             
----------2----2-2-2--x-x--||
----------2----2-2-2--x-x--||
----1--1--2----2-2-2--x-x-*||
----2--2--4----4-4-4--x-x-*||
----2--2--4----4-4-4--x-x--||
----0--0--2----2-2-2--x-x--||


                                  Supersonic                                    


                                                                  Noel Gallagher
Guitar 1



                                                                               
E||------------------|------------------|------------------|------------------|
B||------------------|------------------|------------------|------------------|
G||------------------|------------------|------------------|------------------|
D||------------------|------------------|------------------|------------------|
A||------------------|------------------|------------------|------------------|
E||------------------|------------------|------------------|------------------|


                                                                            
------------------|------------------|------------------|------------------|
------------------|------------------|------------------|------------------|
------------------|------------------|------------------|------------------|
------------------|------------------|------------------|------------------|
------------------|------------------|------------------|------------------|
------------------|------------------|------------------|------------------|


                                                                               
------------------|------------------|------------------|---------------------|
------------------|------------------|------------------|---------------------|
------------------|------------------|------------------|---------------------|
------------------|------------------|------------------|------------------4--|
------------------|------------------|------------------|----------2r---0-----|
------------------|------------------|------------------|---------------------|


                                                             
------------------|-----------7----------|------------------|
------------------|--------------5-------|------------------|
------------------|-------------------6--|------------------|
------------------|----x-----------------|------------------|
------------------|----------------------|------------------|
------------------|----------------------|------------------|


                                                                
---------------------|------------------|-----------7----------|
---------------------|------------------|--------------5-------|
---------------------|------------------|-------------------6--|
------------------4--|------------------|----x-----------------|
----------2r---0-----|------------------|----------------------|
---------------------|------------------|----------------------|


                                                            
------------------|---------------------|------------------|
------------------|---------------------|------------------|
------------------|---------------------|------------------|
------------------|------------------4--|------------------|
------------------|----------2r---0-----|------------------|
------------------|---------------------|------------------|


                                                                
-----------7----------|------------------|---------------------|
--------------5-------|------------------|---------------------|
-------------------6--|------------------|---------------------|
----x-----------------|------------------|------------------4--|
----------------------|------------------|----------2r---0-----|
----------------------|------------------|---------------------|


                                                             
------------------|-----------7----------|------------------|
------------------|--------------5-------|------------------|
------------------|-------------------6--|------------------|
------------------|----x-----------------|------------------|
------------------|----------------------|------------------|
------------------|----------------------|------------------|


                                                           
-------------------|-------------------|------------------|
-------------------|-------------------|------------------|
-------------------|-------------------|------------------|
-------------------|-------------------|------------------|
-------------------|--2----------------|------------------|
----------------0--|--0----------------|------------------|


                                                              
--7------------------|-------------------|-------------------|
-----5---------------|-------------------|-------------------|
----------6----------|-------------------|-------------------|
---------------------|-------------------|-------------------|
---------------------|-------------------|--2----------------|
---------------------|----------------0--|--0----------------|


                                                                    
------------------|----------------------4--|----------------------|
------------------|-----------6-------------|----6-----------------|
------------------|--------4-------4--------|---------6h-4---------|
------------------|-----6-------------6-----|----------------------|
------------------|--4----------------------|-------------------0--|
------------------|-------------------------|----------------------|


                                                                            
-------------------------|-----------------------|-------------------------|
-------------------------|-----------------------|-------------------------|
-------------------------|-----------------------|-------------------------|
------4------------------|------2----------------|------4------------------|
--2/4----4--2----0----0--|--2/4----4-------------|--2/4----4--2----0----0--|
-------------------------|------------2----------|-------------------------|


                                                                          
-----------------------|-------------------------|-----------------------|
-----------------------|-------------------------|-----------------------|
-----------------------|-------------------------|-----------------------|
------2----------------|------4------------------|------2----------------|
--2/4----4-------------|--2/4----4--2----0----0--|--2/4----4-------------|
------------2----------|-------------------------|------------2----------|


                                                                             
-------------------------|-----------------------|--------------------------|
-------------------------|-----------------------|--------------------------|
-------------------------|-----------------------|------16b---16/-14----16--|
------4------------------|------2----------------|--------------------------|
--2/4----4--2----0----0--|--2/4----4-------------|--------------------------|
-------------------------|------------2----------|--------------------------|


                                                            
--------------------------------|--------------------------|
--------------------------------|----------------------17--|
----14--------------14----------|------16b---16/-14--------|
--------16--14--16------16--14--|--------------------------|
--------------------------------|--------------------------|
--------------------------------|--------------------------|


                                                                
----------------------------------|----------------------------|
----------------------------------|----------------------------|
----16r---14----------14h16h14----|--14----16b---16/-14----16--|
----------------14h16----------16-|----------------------------|
----------------------------------|----------------------------|
----------------------------------|----------------------------|


                                                            
--------------------------------|--------------------------|
--------------------------------|----------------------17--|
----14--------------14----------|------16b---16/-14--------|
--------16--14--16------16--14--|--------------------------|
--------------------------------|--------------------------|
--------------------------------|--------------------------|


                                                                             
------------------------------------|--------------------|------------------|
------------------------------------|--------------------|------------------|
----16r---14--14--------14h16h14----|--14~---------------|------------------|
------------------14h16----------16-|--------------------|------------------|
------------------------------------|--------------------|------------------|
------------------------------------|--------------------|------------------|


                                                           
------------------|--------------------|------------------|
------------------|--------------------|------------------|
------------------|--------------------|------------------|
------------------|--------------------|------------------|
------------------|----------2r---0----|------------------|
------------------|--------------------|------------------|


                                                                
-----------7----------|------------------|---------------------|
--------------5-------|------------------|---------------------|
-------------------6--|------------------|---------------------|
----x-----------------|------------------|------------------4--|
----------------------|------------------|----------2r---0-----|
----------------------|------------------|---------------------|


                                                             
------------------|-----------7----------|------------------|
------------------|--------------5-------|------------------|
------------------|-------------------6--|------------------|
------------------|----x-----------------|------------------|
------------------|----------------------|------------------|
------------------|----------------------|------------------|


                                                                
---------------------|------------------|-----------7----------|
---------------------|------------------|--------------5-------|
---------------------|------------------|-------------------6--|
------------------4--|------------------|----x-----------------|
----------2r---0-----|------------------|----------------------|
---------------------|------------------|----------------------|


                                                            
------------------|---------------------|------------------|
------------------|---------------------|------------------|
------------------|---------------------|------------------|
------------------|------------------4--|------------------|
------------------|----------2r---0-----|------------------|
------------------|---------------------|------------------|


                                                              
-----------7----------|------------------|-------------------|
--------------5-------|------------------|-------------------|
-------------------6--|------------------|-------------------|
----x-----------------|------------------|-------------------|
----------------------|------------------|-------------------|
----------------------|------------------|----------------0--|


                                                             
-------------------|------------------|--7------------------|
-------------------|------------------|-----5---------------|
-------------------|------------------|----------6----------|
-------------------|------------------|---------------------|
--2----------------|------------------|---------------------|
--0----------------|------------------|---------------------|


                                                           
-------------------|-------------------|------------------|
-------------------|-------------------|------------------|
-------------------|-------------------|------------------|
-------------------|-------------------|------------------|
-------------------|--2----------------|------------------|
----------------0--|--0----------------|------------------|


                                                                           
----------------------4--|----------------------|-------------------------|
-----------6-------------|----6-----------------|-------------------------|
--------4-------4--------|---------6h-4---------|-------------------------|
-----6-------------6-----|----------------------|------4------------------|
--4----------------------|-------------------0--|--2/4----4--2----0----0--|
-------------------------|----------------------|-------------------------|


                                                                          
-----------------------|-------------------------|-----------------------|
-----------------------|-------------------------|-----------------------|
-----------------------|-------------------------|-----------------------|
------2----------------|------4------------------|------2----------------|
--2/4----4-------------|--2/4----4--2----0----0--|--2/4----4-------------|
------------2----------|-------------------------|------------2----------|


                                                                            
-------------------------|-----------------------|-------------------------|
-------------------------|-----------------------|-------------------------|
-------------------------|-----------------------|-------------------------|
------4------------------|------2----------------|------4------------------|
--2/4----4--2----0----0--|--2/4----4-------------|--2/4----4--2----0----0--|
-------------------------|------------2----------|-------------------------|


                                                   
-----------------------|--------------------------|
-----------------------|--------------------------|
-----------------------|------16b---16/-14----16--|
------2----------------|--------------------------|
--2/4----4-------------|--------------------------|
------------2----------|--------------------------|


                                                            
--------------------------------|--------------------------|
--------------------------------|----------------------17--|
----14--------------14----------|------16b---16/-14--------|
--------16--14--16------16--14--|--------------------------|
--------------------------------|--------------------------|
--------------------------------|--------------------------|


                                                                
----------------------------------|----------------------------|
----------------------------------|----------------------------|
----16r---14----------14h16h14----|--14----16b---16/-14----16--|
----------------14h16----------16-|----------------------------|
----------------------------------|----------------------------|
----------------------------------|----------------------------|


                                                                
--------------------------------|------------------------------|
--------------------------------|------------------------------|
----14--------------14----------|------14----16----16--16--16--|
--------16--14--16------16--14--|--16--------------------------|
--------------------------------|------------------------------|
--------------------------------|------------------------------|


                                                              
----------------------------------|--------------------------|
----------------------------------|--------------------------|
--16r-14----14--14----14--16--14--|------16b---16r-14----16--|
---------16-----------------------|--------------------------|
----------------------------------|--------------------------|
----------------------------------|--------------------------|


                                                            
--------------------------------|--------------------------|
--------------------------------|----------------------17--|
----14--------------14----------|------16b---16/-14--------|
--------16--14--16------16--14--|--------------------------|
--------------------------------|--------------------------|
--------------------------------|--------------------------|


                                                              
----------------------------------|--------------------------|
----------------------------------|--------------------------|
----16r---14----------14h16-------|------16b---16r-14----16--|
----------------14h16-------14h16-|--------------------------|
----------------------------------|--------------------------|
----------------------------------|--------------------------|


                                                            
--------------------------------|--------------------------|
--------------------------------|----------------------17--|
----14--------------14----------|------16b---16/-14--------|
--------16--14--16------16--14--|--------------------------|
--------------------------------|--------------------------|
--------------------------------|--------------------------|


                                                        
----------------------|--------------------------------|
----------------------|--------------------------------|
----16r---14----------|--------14------16----14----16--|
----------------------|--14h16-----16------------------|
----------------------|--------------------------------|
----------------------|--------------------------------|


                                                              
--------------------------|----------------------------------|
--------------------------|----------------------------------|
----14----16----14----14--|--------14------14h16---14----16--|
--------------------------|--14h16-----14--------------------|
--------------------------|----------------------------------|
--------------------------|----------------------------------|


                                                           
---------------------------|------------------------------|
---------------------------|------------------------------|
----16b-16b-16r-----14--x--|--------14----16----14----14h-|
---------------------------|--14h16-----------------------|
---------------------------|------------------------------|
---------------------------|------------------------------|


                                                                
----------------------------|----------------------------------|
----------------------------|----------------------------------|
--16--14----16----14--------|--------14--14----14-16-14----16b-|
------------------------14--|--14h16---------------------------|
----------------------------|----------------------------------|
----------------------------|----------------------------------|


                                                                     
-----------------------------------||-------------------------------|
-----------------------------------||-------------------------------|
----16b-16b-16b-16r16-14-----14----||*--16b---16r-----14--------14--|
-------------------------16--------||*--------------------14-16-----|
-----------------------------------||-------------------------------|
-----------------------------------||-------------------------------|


                                                          
------------------------------|--------------------------|
------------------------------|----------------------17--|
----16b---16b-16r---14h16-14--|------16b---16r-14--------|
------------------------------|--------------------------|
------------------------------|--------------------------|
------------------------------|--------------------------|


                                                                
----------------------------------|----------------------------|
----------------------------------|----------------------------|
----16r---14----------14h16-------|--14----16b---16r-14----16--|
----------------14h16-------14h16-|----------------------------|
----------------------------------|----------------------------|
----------------------------------|----------------------------|


                                                            
--------------------------------|--------------------------|
--------------------------------|--------------------------|
----14--------------14----------|------16b---16r-14----16--|
--------16--14--16------16--14--|--------------------------|
--------------------------------|--------------------------|
--------------------------------|--------------------------|


                                   
---------------------------------||
---------------------------------||
----14--------------14----------*||
--------16--14--16------16--14--*||
---------------------------------||
---------------------------------||





Comments


Popular Oasis tabs & chords
Cigarettes And Alcohol 2 Bass Tabs
Acqiesce Chords
Boy With The Blues Chords
Gas Panic! Chords
Going Nowhere Chords
Acquiesce 1 Tabs
Guess God Thinks Im Abel Tabs
One Way Road Tabs
The Fame Tabs
Live Forever 2 Ukulele


Song lyrics



↑ Back to top | Tablatures and chords are parodies/interpretations of the original songs. You may use it for private study, scholarship, research or language learning purposes only
© 2014 AZChords.com Contact us | Privacy policy | DMCA | Add/correct tabs | Request tabs | Top 50 tabs