» » »

Stop Crying Your Heart Out Little Tabs (ver.1)

Artists:  A B C D E F G H I J K L M N O P Q R S T U V W X Y Z # 

Stop Crying Your Heart Out Little Tabs (ver.1)

Oasis
Rating:
0/5 (0 votes)

Hard to play? Try these video lessons and learn fast.
                (Riff)
In the middle of the song this little Riff Plays
e--------0-----------
b-------7-7-----------
g------7--------------
d---------------------
a---------------------
E----------------------


At the end of the Song this riff plays

e---------------0 Repeat 2 times then.....-----0-----0 then Strum backword
b--------------7------------------------------7-0---7----------
g-------------7------------------------------7-----7---------
d------------------------------------------------------------
a------------------------------------------------------------
E--------------------------------------------------------------
            
Hard to play? Try these video lessons and learn fast. | Correct




comments powered by Disqus
↑ Back to top | Tablatures and chords are parodies/interpretations of the original songs. You may use it for private study, scholarship, research or language learning purposes only