» » »

Oasis, Songbird Demo Tabs (ver.1)

Artists:  A B C D E F G H I J K L M N O P Q R S T U V W X Y Z # 

Songbird Demo Tabs (ver.1)

Oasis Tabs
Rating:
0/5 (0 votes)
Songbird Demo lessons Tabs too difficult? Try these video lessons and learn fast
                --Songbird--
written by Liam Gallagher

Chords: 
G (320033) 
G/F# (2x0033) 
Em (022000) 
/F# (2x0000) 

Intro  
G 

Verse 1 
G 
Talking to the songbird yesterday 
		       G/F# Em 
Flew me to a place not far away 

She's a little pilot in my mind 
			  /F#       G 
Singing songs of love to pass the time 

Gonna write a song so she can see 
			  G/F#    Em 
Give her all the love she gives to me 

Talk of better days that have yet to come 
				/F# G 
I've never felt this love from any - one 

Chorus 
She's not anyone 
	G/F# Em 
She's not anyone 
	/F# G 
She's not anyone 

Verse 2 (Same chords as verse 1) 
A man can never dream these kind of things 
Especially when she came and spread her wings 
Whispered in my ear the things i'd like 
Then she flew away into the night 
Gonna write a song so she can see 
Give her all the love she gives to me 
Talk of better days that have yet to come 
Never felt this love from anyone 

Chorus 
She's not anyone 
She's not anyone 
She's not anyone 

Outro 
(Same chords as verse) 
E||------------------------|---------------------|------------------------|
B||------------------------|---------------------|------------------------|
G||--4--4--4--4--5----4----|--2-------4----------|--4--4--4--4--5----4----|
D||------------------------|-------5-------------|------------------------|
A||------------------------|---------------------|------------------------|
E||------------------------|---------------------|------------------------|


                                                                     
---------------------|------------------------|---------------------|
---------------------|------------------------|---------------------|
--2------------------|--4--4--4--4--5----4----|--2-------4----------|
-------5--2----------|------------------------|-------5-------------|
---------------------|------------------------|---------------------|
---------------------|------------------------|---------------------|


                                             
------------------------|------------------||
------------------------|------------------||
--4--4--4--4--5----4----|--2----0--2----0--||
------------------------|------------------||
------------------------|------------------||
------------------------|------------------||
            

comments powered by Disqus
↑ Back to top | Oasis Tabs for Songbird Demo. Lyrics for acoustic guitar and electric guitar. Tablatures and chords are parodies/interpretations of the original songs. You may use it for private study, scholarship, research or language learning purposes only