» » »

Shock Of The Lightning Bass tabs (ver.1)

Artists:  A B C D E F G H I J K L M N O P Q R S T U V W X Y Z # 

Shock Of The Lightning Bass tabs (ver.1)

Oasis
Rating:
0/5 (0 votes)

Hard to play? Try these video lessons and learn fast.
                -------------------------------------------------------------------------------
		Shock Of The Lightning - OASIS
-------------------------------------------------------------------------------


Tuning: Standard

Intro 

Start at 00:17

G|-------------------------------------------------------------------------|
D|-----/9997(x14)--5(x8)--7(x8)--------------------------------------------|
A|-------------------------------------------------------------------------|
E|-------------------------------------------------------------------------|

Verse

G|-------------------------------------------------------------------------|
D|------9(x56)--5(x8)--7(x8)-----------------------------------------------|
A|-------------------------------------------------------------------------|
E|-------------------------------------------------------------------------|

Pre-Chorus

G|-------------------------------------------------------------------------|
D|------9997(x8)-----------------------------------------------------------|
A|-------------------------------------------------------------------------|
E|-------------------------------------------------------------------------|

Chorus 1

G|----------------------------------------------99999999-------------------|
D|------666666665555555566666666--------99999999--------55555555-----------|
A|------------------------------77777777------------------------7777777----|
E|-------------------------------------------------------------------------|

G|------------------------------99999999--------99999999--------99999999---|
D|------55555555--------99999999--------99999999--------99999999-----------|
A|--------------77777777---------------------------------------------------|
E|-------------------------------------------------------------------------|

G|-------------------------------------------------------------------------|
D|------555555557777777799999999-------------------------------------------|
A|-------------------------------------------------------------------------|
E|-------------------------------------------------------------------------|

Chorus 2

G|----------------------------------------------99999999-------------------|
D|------666666665555555566666666--------99999999--------55555555-----------|
A|------------------------------77777777------------------------7777777----|
E|-------------------------------------------------------------------------|

G|------------------------------99999999--------99999999--------99999999---|
D|------55555555--------99999999--------99999999--------99999999-----------|
A|--------------77777777---------------------------------------------------|
E|-------------------------------------------------------------------------|

G|------12(x8)--14(x8)--16~------------------------------------------------|
D|-------------------------------------------------------------------------|
A|-------------------------------------------------------------------------|
E|-------------------------------------------------------------------------|

Chorus 3

G|------------------------------99999999--------99999999---12(x8)----------|
D|------66666666--------66666666--------99999999-----------------14(x8)----|
A|--------------77777777---------------------------------------------------|
E|-------------------------------------------------------------------------|

G|-12(x8)---------------------99999999--------99999999--------99999999-----|
D|-------14(x8)-------99999999--------99999999--------99999999-------------|
A|-------------------------------------------------------------------------|
E|-------------------------------------------------------------------------|

Ending

G|-----------9(x8)---------------------------------------------------------|
D|------9(x8)--------------------------------------------------------------|
A|-------------------------------------------------------------------------|
E|-------------------------------------------------------------------------|

Finish On

G|-------------------------------------------------------------------------|
D|------9~-----------------------------------------------------------------|
A|-------------------------------------------------------------------------|
E|-------------------------------------------------------------------------|

Order

Intro
Verse x2
Pre-Chorus
Chorus 1
Verse x2
Pre-Chorus
Chorus 2
DRUM BREAK
Chorus 3
Ending x9


| /  slide up
| ~  vibrato

===============================================================================
            
Hard to play? Try these video lessons and learn fast. | Correct




comments powered by Disqus
↑ Back to top | Tablatures and chords are parodies/interpretations of the original songs. You may use it for private study, scholarship, research or language learning purposes only