» » »

Oasis, Roll Whit It Bass tabs (ver.1)

Artists:  A B C D E F G H I J K L M N O P Q R S T U V W X Y Z # 

Roll Whit It Bass tabs (ver.1)

Oasis Tabs
Rating:
0/5 (0 votes)
Hard to play? Try these video lessons and learn fast.
                OASIS
Roll With It



Pure rock 'n' roll song



Intro
G|---------------------------------------------------------
D|---------------------------------------------------------
A|-5--5--5-5-5-5-3--3--3-3-3-3-----------------------------
E|-----------------------------3--3--3-3-3-3-3--3--3-3-3-3-

--------------------------------------------------------------|
--------------------------------------------------------------|
--5--5--5-5-5-5-3--3--3-3-3-3---------------------------------|
------------------------------5-5-5-5-5-5-5-5-5-5-5-5-5-5-5-5-|


Verse
|-------------------------------------------------------------------------------
|-------------------------------------------------------------------------------
|-----------------------------------------------------3--3--2-2-----------------
|-3--3-3--3--3-3--3-3--3--3-3--3-3--3--3-3--3-3--3--3------------5--5-5--5-5--5-

--3-3--3-3--3-3--3--3-3--3-3--3--3-3--3-3--3--3-3--3-3--3--3-3--3-3--3--3-3--3-

--3--3--2-2-----------------3--3--2-2-----------------3--3--2-2--5--5-5--5-5--5-
-------------5--5-5--5-5--5------------5--5-5--5-5--5---------------------------

--------------------------|
--------------------------|
--------------------------|
--3-3--3-3--3-3-3--3-3--3-|


Chorus
|-----------------------------------------------------|
|-----------------------------------------------------|
|-----------------------------------------------------|
|-1--1--1-1--1-1--1--1-1--1-3--3--3-3--3-3--3--3-3--3-| x3

|----------------------------------------------------------------|
|----------------------------------------------------------------|
|---------------------------3--3--3-3--3-5--5-3--3-2-----5--5--5-|
|-1--1--1-1--1-1--1--1-1--1--------------------------5-3---------|


Verse 2
|------------------------------------------------------------------------------
|------------------------------------------------------------------------------
|----------------------------------------------------3--3--2-2--0--0-0--0-0--0-
|-3-3--3-3--3-3--3--3-3--3-3--3--3-3--3-3--3--3-3--3---------------------------

--3-3--3-3--3-3--3--3-3--3-3--3--3-3--3-3--3--3-3--3-3--3--3-3--3-3--3--3-3--3-

------------------------------------------------------
------------------------------------------------------
--3--3--2-2--0--0-0--0-0--0-3--3--2-2--0--0-0--0-0--0-
------------------------------------------------------

-------------------------------------------------------|
-------------------------------------------------------|
--3--3--2-2--5--5-5--5-5--5----------------------------|
----------------------------3--3--3-3/1515151515151515-|
(this part comes only once)



play the Chorus



Verse 2 (In the end of Verse 2)
     repeat this:
|---------------------------|
|---------------------------|
|-3--3--2-2--0--0-0--0-0--0-|
|---------------------------|

Then...
|------------------------------|
|------------------------------|
|-3--3--2-2--0--0-0--0-0--0----|
|---------------------------3--|
            

comments powered by Disqus
↑ Back to top | Oasis Bass for Roll Whit It. Lyrics for acoustic guitar and electric guitar. Tablatures and chords are parodies/interpretations of the original songs. You may use it for private study, scholarship, research or language learning purposes only