» » »

Rockin Chair Bass tabs (ver.1)

Artists:  A B C D E F G H I J K L M N O P Q R S T U V W X Y Z # 

Rockin Chair Bass tabs (ver.1)

Oasis
Rating:
0/5 (0 votes)

Hard to play? Try these video lessons and learn fast.
                "
Intro:
G:-------------:-------------:------------:-------------|
D:-------------:-------------:------------:-------------|
A:-3-3-5-5-3---:-3-3-5-5-3---:------------:---------3---|
E:-----------5-:-----------5-:------------:-----------5-|


Verse:
"I'm Older than i wish to be..."                     "All my life.."
G:-------------:-------------:-------------:---------:------------|
D:-------------:-------------:-------------:---------:--3---2-----|
A:-3--3--3--3--:-2--2--2--2--:-0--0--0--0--:---------:----------5-|
E:-------------:-------------:-------------:-1--1--1-:------------|

"I've tried to find another way"
G:--------------:----------|
D:------------2-:----------|
A:-5--5-5-5-5---:----------|
E:--------------:-1--1-1-1-|

"I don't care for your attitude"                    "All my life.."
G:-------------:-------------:-------------:---------:------------|
D:-------------:-------------:-------------:---------:--3---2-----|
A:-3--3--3--3--:-2--2--2--2--:-0--0--0--0--:---------:---------5--|
E:-------------:-------------:-------------:-1--1--1-:------------|

"I've tried to make a better day"
G:--------------:----------|
D:------------2-:----------|
A:-5--5-5-5-5---:----------|
E:--------------:-1--1-1-1-|



Chorus:
"It's hard enough being alone"   X2 "Waiting for.."X2  "To come and play"X2
G:-----------------:-----------------:-----------------:-----------------|
D:-----------------:-----------------:-----------------:-2-2-2-2-2-2-2-2-|
A:-----------------:-0-0-0-0-0-0-0-0-:-----------------:-----------------|
E:-0-0-0-0-0-0-0-0-:-----------------:-1-1-1-1-1-1-1-1-:-----------------|

"It's hard enough sitting there" X2 "It's all too.."X2 "When you're not.."X2
there"
G:-----------------:-----------------:-----------------:-----------------|
D:-----------------:-----------------:-----------------:-2-2-2-2-2-2-2-2-|
A:-----------------:-0-0-0-0-0-0-0-0-:-----------------:-----------------|
E:-0-0-0-0-0-0-0-0-:-----------------:-1-1-1-1-1-1-1-1-:-----------------|


(guitar solo)
play nothing



Chorus:
"It's hard enough being alone"   X2 "Waiting for.."X2  "To come and play"X2
G:-----------------:-----------------:-----------------:-----------------|
D:-----------------:-----------------:-----------------:-2-2-2-2-2-2-2-2-|
A:-----------------:-0-0-0-0-0-0-0-0-:-----------------:-----------------|
E:-0-0-0-0-0-0-0-0-:-----------------:-1-1-1-1-1-1-1-1-:-----------------|

"It's hard enough sitting there" X2"It's all too.."X2  "When you're not.."X2
there"
G:-----------------:-----------------:-----------------:-----------------|
D:-----------------:-----------------:-----------------:-2-2-2-2-2-2-2-2-|
A:-----------------:-0-0-0-0-0-0-0-0-:-----------------:-----------------|
E:-0-0-0-0-0-0-0-0-:-----------------:-1-1-1-1-1-1-1-1-:-----------------|



Verse:
"I'm Older than i wish to be..."                     "All my life.."
G:-------------:-------------:-------------:---------:------------|
D:-------------:-------------:-------------:---------:--3---2-----|
A:-3--3--3--3--:-2--2--2--2--:-0--0--0--0--:---------:----------5-|
E:-------------:-------------:-------------:-1--1--1-:------------|

"I've tried to find another way"
G:--------------:----------|
D:------------2-:----------|
A:-5--5-5-5-5---:----------|
E:--------------:-1--1-1-1-|

"I don't care for your attitude"                    "All my life.."
G:-------------:-------------:-------------:---------:------------|
D:-------------:-------------:-------------:---------:--3---2-----|
A:-3--3--3--3--:-2--2--2--2--:-0--0--0--0--:---------:----------5-|
E:-------------:-------------:-------------:-1--1--1-:------------|

"I've tried to make a better day"
G:--------------:----------|
D:------------2-:----------|
A:-5--5-5-5-5---:----------|
E:--------------:-1--1-1-1-|



Chorus:
"It's hard enough being alone"   X2 "Waiting for.."X2  "To come and play"X2
G:-----------------:-----------------:-----------------:-----------------|
D:-----------------:-----------------:-----------------:-2-2-2-2-2-2-2-2-|
A:-----------------:-0-0-0-0-0-0-0-0-:-----------------:-----------------|
E:-0-0-0-0-0-0-0-0-:-----------------:-1-1-1-1-1-1-1-1-:-----------------|

"It's hard enough sitting there" X2"It's all too.."X2  "When you're not.."X2
there"
G:-----------------:-----------------:-----------------:-----------------|
D:-----------------:-----------------:-----------------:-2-2-2-2-2-2-2-2-|
A:-----------------:-0-0-0-0-0-0-0-0-:-----------------:-----------------|
E:-0-0-0-0-0-0-0-0-:-----------------:-1-1-1-1-1-1-1-1-:-----------------|




Outro:
G:-------------:-------------:------------:-------------|
D:-------------:-------------:------------:-------------|
A:-3-3-5-5-3---:-3-3-5-5-3---:------------:---------3---|
E:-----------5-:-----------5-:------------:-----------5-|

This song is awesome!!!!!!!
"            
Hard to play? Try these video lessons and learn fast. | Correct




comments powered by Disqus
↑ Back to top | Tablatures and chords are parodies/interpretations of the original songs. You may use it for private study, scholarship, research or language learning purposes only