» » »

Part Of The Queue Bass tabs (ver.1)

Artists:  A B C D E F G H I J K L M N O P Q R S T U V W X Y Z # 

Part Of The Queue Bass tabs (ver.1)

Oasis
Rating:
0/5 (0 votes)

Hard to play? Try these video lessons and learn fast.
                Main riff:

G|5-4---22-22--------------------2--2---------|
D|----5-------2-2-2-23-3-3-5-5-5-----2--23--3-|
A|--------------------------------------------|
E|--------------------------------------------|

Chorus:


G|5h7-7-7-7-7-5h7-7-7-5---------------------------------------|
D|----------------------5-5h7-7-7-7-7-5h7-7-7-5-2-2/3-3-3-3-3-|
A|------------------------------------------------------------|
E|------------------------------------------------------------|

G|-----------------------------------22-22-------------|
D|33-3-3-3-3-3h5-5-5-5-5-5h6-6-6-6-6-------2-2-2-23-3-3|
A|-----------------------------------------------------|
E|-----------------------------------------------------|
then go back to main...

Bridge:
G|22-22--------------------|
D|------2-2-2-23-3-3-5-5-5-|
A|-------------------------|
E|-------------------------|
            
Hard to play? Try these video lessons and learn fast. | Correct




comments powered by Disqus
↑ Back to top | Tablatures and chords are parodies/interpretations of the original songs. You may use it for private study, scholarship, research or language learning purposes only