>
 >
One Way Road

One Way Road Guitar Tabs

Oasis - One Way Road chords, tabs, tablatures, lyrics

Guitar lessons | Add/correct | Request | Top 50 tabs Artists:  A B C D E F G H I J K L M N O P Q R S T U V W X Y Z 0-9

One Way Road Guitar Tabs – Oasis

CD, Sheet music, Poster

Do you like One Way Road? Share with your friends now
ChordsChords v2Chords v3TabsUkulele
-------------------------------------------------------------------------------
-------------------------------------------------------------------------------

Tuning: Standard

Please note: some of these chords are different to what you might think they are, 
so please take a look at the chord references. I have also put basic chords on to 
make this tab beginner friendly.

Chords for reference:
       EADGBE
D     (xx0232)
Em7   (022030)
Dm7   (xxx211)
G/D   (xxx334)
C     (x32010)
G     (320033)
D7    (xx0535)
D6    (xx0435)
Gm9/D (xx0335)
A/C#  (x4222x)

Introduction (pick these chords for authentic effect)

D | Em7 | Em7 | D

Verse 1

  D                                         Em7
I wanna get high but I never could take the pain,

                                           D
Cos it would blow away my soul like a hurricane.

                                             Em7
Like a one man band, clapping in the pouring rain,

                                                          D
I don't know where I'm going, but don't know from where I came.



Bridge

                 Dm7   G/D  D
Where we gonna be, in summertime?

                Dm7   G/D     D
Are we gonna see, the heavens shine?

     C               G
Like diamonds in the sky?


Chorus


D7               D6
 As soon as they come,

                  Gm9/D
The feelings they go,

               D              C G D7
All alone on a one way road. 

                D6
As soon as they come,

                  Gm9/D
The feelings they go,

               D            
All alone on a one way road.


The rhythm guitar then plays C, G and D while Noel plays this solo:

(rhythm) C G | D x2

e|----------------------------|
B|----------------------------|
G|-10--7--------------10-7----|
D|--------10--7----10---------|
A|--------------10------------|
E|----------------------------| (play twice)


The first verse is then repeated, but there is a difference. On the last line  play this:


(Em7)                                  C               A/C#    D
     I don't know where I'm going, but don't know from where i came.

The bridge and chorus are then repeated as they are above. After the chorus, the 
rhythm guitar again plays C, G, D and Noel plays this solo:

(rhythm) C G | D x8


e|--------------------------|
B|--------------------------|
G|-10--7-----------10-7-----|
D|-------10--7---10---------|
A|-------------10-----------|
E|--------------------------| X4


e|-----------------------------------------------------------|
B|--------------------------------------13/15--15b17--13-15--|
G|-10--7-------------10--7----7--10/12-----------------------|
D|-------10--7----10-------10--------------------------------|
A|-------------10--------------------------------------------|
E|-----------------------------------------------------------|


e|----------------------------------------------------|
B|------------------------------------15----15--15----|
G|-10--7-------------10-7--7-10-10/12----12-----------|
D|----------10----p7----------------------------------|
A|----------------------------------------------------|
E|----------------------------------------------------|

And thats the end. Enjoy playing and please rate my tabs!

| /  slide up
| \  slide down
| h  hammer-on
| p  pull-off
| ~  vibrato
| +  harmonic
| x  Mute note
=======================================





Comments


Popular Oasis tabs & chords
Idlers Dream 1 Chords
It's Better People Chords
Little By Little 4 Chords
Little James Chords
Slide Away 3 Chords
D You Know What I Mean Tabs
Hey Now Tabs
I Hope I Think 1 Tabs
Songbird Demo Tabs
If I Had A Gun Ukulele


Song lyrics



↑ Back to top | Tablatures and chords are parodies/interpretations of the original songs. You may use it for private study, scholarship, research or language learning purposes only
© 2014 AZChords.com Contact us | Privacy policy | DMCA | Add/correct tabs | Request tabs | Top 50 tabs