» » »

Oasis, Mucky Fingers Bass tabs (ver.1)

Artists:  A B C D E F G H I J K L M N O P Q R S T U V W X Y Z # 

Mucky Fingers Bass tabs (ver.1)

Oasis Tabs
Rating:
0/5 (0 votes)
Mucky Fingers lessons Tabs too difficult? Try these video lessons and learn fast
                Oasis - mucky fingers from the album - Dont believe the truth
EADG - Standard Tuning

Intro/Verse

G|-------------------------------------------------------------------------|
D|-------------------------------------------------------------------------|
A|12-12-12-12-12-12-12-12-12-12-12-12-12-12-12-12-12-12-12--12-12-12-12-12-|
E|-------------------------------------------------------------------------|

G|-------------------------------------------------------------------------|
D|-------------------------------------------------------------------------|
A|-12-12-12-12-12-12-12-12-12-12-12-12-12-12-12-12-------------------------|
E|-------------------------------------------------10-10-10-10-12-12-12-12-|

"You get your mucky fingers burnt........"

G|--------------------------------------------------|
D|--------------------------------------------------|
A|12-12-12-12-12-12-12-12-12------------------------|
E|--------------------------10-10-10-10-12-12-12-12-|


Bridge
"Fed up of life in the city........."

G|------------------------------------------------------------------------|
D|------------------------------------------------------------------------|
A|-5-5-5-5-5-5-5-7-7-7-7-7-7-7-----------9-9-9-9-9-9-9--------------------|
E|----------------------------5-5-5-5-5-5-------------7-7-7-7-7-7-7-7-7-7-|

G|--------------------------------------------------------------|
D|-------------------------------------/12-12-12-12-12-12-12-12-|
A|-/14-14-14-14-14-14-5-5-5-5-5-5-5-5-5-------------------------|
E|--------------------------------------------------------------|

Outro X 8 

G|------------------------12--------|
D|---------------------14---14-12---|
A|12-12-12-12-12-12-12-----------14-|
E|----------------------------------|

End

G|--------------|
D|--------------|
A|12-12-12-12---|
E|------------5-|

Song Structure

Intro
Verse X 8
Bridge 
Verse X 8
Instrumental (use Bridge chords)
Verse X 8
Outro
End
            

comments powered by Disqus
↑ Back to top | Oasis Bass for Mucky Fingers. Lyrics for acoustic guitar and electric guitar. Tablatures and chords are parodies/interpretations of the original songs. You may use it for private study, scholarship, research or language learning purposes only