» » »

Oasis, Morning Glory Bass tabs (ver.1)

Artists:  A B C D E F G H I J K L M N O P Q R S T U V W X Y Z # 

Morning Glory Bass tabs (ver.1)

Oasis Tabs
Rating:
0/5 (0 votes)
Morning Glory lessons Tabs too difficult? Try these video lessons and learn fast
                 Intro

 |-----------------------------|
 |-----------------------------| x2
 |---------------5--5-5--5-5-5-|
 |-0-0-3-0-3-0-3---------------|


 On third time
 |----------------------------------------------------------|
 |----------------------------------------------------------|
 |---------------5--5-5--5-5-5-------------2-3-3-3--3-2-----|
 |-0-0-3-0-3-0-3---------------5--5-5--5-5--------------3-0-|


  Verse is same as intro repeated
 |-----------------------------|
 |-----------------------------| x2
 |---------------5--5-5--5-5-5-|
 |-0-0-3-0-3-0-3---------------|


 On third time
 |----------------------------------------------------------|
 |----------------------------------------------------------|
 |---------------5--5-5--5-5-5-------------2-3-3-3--3-2-----|
 |-0-0-3-0-3-0-3---------------5--5-5--5-5--------------3-0-|


  Pre-Chorus
 |------------------------------|
 |------------------------------|
 |-5--5-5--5-5-5--3--3-3--3-3-3-| x2
 |------------------------------|

 |---------------------------------------------|
 |---------------------------------------------|
 |-5--5-5--5-5-5--5--5-5--5-5-5--2--2-2--2-2-2-|
 |---------------------------------------------|

 Chorus is same as intro
 |-----------------------------|
 |-----------------------------| x2
 |---------------5--5-5--5-5-5-|
 |-0-0-3-0-3-0-3---------------|


 On third time
 |----------------------------------------------------------|
 |----------------------------------------------------------|
 |---------------5--5-5--5-5-5-------------2-3-3-3--3-2-----|
 |-0-0-3-0-3-0-3---------------5--5-5--5-5--------------3-0-|


 During solo play the above riff

the riff is used in the next verse as well


   Pre-Chorus
 |------------------------------|
 |------------------------------|
 |-5--5-5--5-5-5--3--3-3--3-3-3-| x2
 |------------------------------|

 |---------------------------------------------|
 |---------------------------------------------|
 |-5--5-5--5-5-5--5--5-5--5-5-5--2--2-2--2-2-2-|
 |---------------------------------------------|


 Play intro riff for the rest of the song
            
Submit corrections

comments powered by Disqus
↑ Back to top | Oasis Bass for Morning Glory. Lyrics for acoustic guitar and electric guitar. Tablatures and chords are parodies/interpretations of the original songs. You may use it for private study, scholarship, research or language learning purposes only