» » »

Married With Children Tabs (ver.6)

Artists:  A B C D E F G H I J K L M N O P Q R S T U V W X Y Z # 

Married With Children Tabs (ver.6)

Oasis
Rating:
0/5 (0 votes)

Tabs too difficult? Try these video lessons and learn fast.
                


Instrument: 6 String Guitar


Tuning: Standard (E A D G B E)




E|---------------------------------------------------------------||
B|--------5---5-7br-7br-7-5--------------------------------------||
G|----4-6---6----------------------------------4-----------------||
D|-s6------------------------4b-4b-4-2-4-2s4h6---6-4-4---4-------||
A|-----------------------------------------------------7---7-7---||
E|---------------------------------------------------------------||


E|-----------------------------7---------------------||
B|-------5---7br-7br-7-5---7s9---9-7br-7br-5\\\0-----||
G|---4-6---------------------------------------------||
D|-6-------------------------------------------------||
A|---------------------------------------------------||
E|---------------------------------------------------||


Key:
h = hammer on
p = pull off
s = fast slide
/ = slide up
\ = slide down
5\\\0 = hold note for a second before sliding down
x = dead note
b = bend
br = bend an release
            
Tabs too difficult? Try these video lessons and learn fast.


comments powered by Disqus
↑ Back to top | Tablatures and chords are parodies/interpretations of the original songs. You may use it for private study, scholarship, research or language learning purposes only