» » »

Married With Children Bass tabs (ver.1)

Artists:  A B C D E F G H I J K L M N O P Q R S T U V W X Y Z # 

Married With Children Bass tabs (ver.1)

Oasis
Rating:
0/5 (0 votes)

Hard to play? Try these video lessons and learn fast.
                (Live)
----------------------------------------------------------------------------
		Married With Children (Live) - Oasis
----------------------------------------------------------------------------


Tuning:Standard

 in no there is no bass in the song, but when they used to do this live back in the 
90's, they used distortion guitars , drums and bass, so here it is, the bass tab for it

Intro, Solo and for all the times they say the chorus:

G|--------------------------------------------------------------------------|
D|--------------------------------------------------------------------------|
A|---------4-4-4---------3-3-3-2-2-2-2--------------------------------------|
E|-0-0-4-4-------5-5-5-5---------------0-0-0-0-0-0-0-0----------------------|

This is for all the verses:

G|--------------------------------------------------------------------------|
D|--------------------------------------------------------------------------|
A|--------------------------------------------------------------------------|
E|--5-5-5-5-5-0-0-0-0-0-5-5-5-5-5-0-0-0-0-0---------------------------------|

 keep on doing tht until ^^^^^^^^^^Liam sings "your music sh*te it keeps me up all night 
all night etc......

G|--------------------------------------------------------------------------|
D|--------------------------------------------------------------------------|
A|--------------------------------------------------------------------------|
E|--2-2-2-2-2-2-2-5-5-5-5-3-3-3-3-3-----------------------------------------|

 and then straight back into the verses

Bridge:

G|--------------------------------------------------------------------------|
D|--------------------------------------------------------------------------|
A|-4-4-4-4-4-4-4------------------------------------------------------------|
E|----------------4-4-4-4-4-4-4-5-5-5-5-5-5-5-0-0-0-0-0-0-0-0-0-0-0-0-0-0-0-|


                                        with you. with you etc......
G|--------------------------------------------------------------------------|
D|--------------------------------------------------------------------------|
A|-4-4-4-4-4-4-4------------------------------------------------------------|
E|---------------4-4-4-4-4-4-4-4-5-5-5-5-5-7-7-5-5-4-4-2-2-7-7-5-5-4-4-2-2--|


after this, go straight into the choruse and then the song finshes...peace out, OASIS!!!!!!!
            
Hard to play? Try these video lessons and learn fast. | Correct




comments powered by Disqus
↑ Back to top | Tablatures and chords are parodies/interpretations of the original songs. You may use it for private study, scholarship, research or language learning purposes only