» » »

Magic Pie Bass tabs (ver.1)

Artists:  A B C D E F G H I J K L M N O P Q R S T U V W X Y Z # 

Magic Pie Bass tabs (ver.1)

Oasis
Rating:
0/5 (0 votes)

Hard to play? Try these video lessons and learn fast.
                OASIS
MAGIC PIE


BASS TAB BY MEELIS SAARD

standard tune EADG low to high

Verse
...but his mind...       They are sleeping...
|---------------------| |-------------------------------------------------|
|---------------------| |-------------------------------------------------|
|---------------------| |-5----5------5-----------------------------------|
|-1--1--1--3--3--3--3-| |-----------5---1-5--5----1--1--1--1--3--3--3--3--| x4

Pre-Chorus
 I'll have my way...
|-------------------------------------------------|
|-------------------------------------------------|
|-1--1--1--1--------------------------------------|
|-------------1--1--1--1--3--3--3--3--3--3--3--3--| x4

When drums starts to play you can improvise, like this
|-------------7----5--------|
|-5---3---5-----------7-5---|
|-------------------------8-|
|---------------------------|

Chorus
 Cos you see...
|-------------------------------------------------
|-------------------------------------------------
|-5--5--5--5--5--5--5--5--3--3--3--3--3--3--3--3--
|-------------------------------------------------

-------------------------------------------------------------------------
-------------------------------------------------------------------------
-------------------------------------------------5--5--5--5--5--5--5--5--
-3--3--3--3--3--3--3--3--3--3--3--3--3--3--3--3--------------------------

----------------------------------------------------------------------------|
----------------------------------------------------------------------------|
-3--3--3--3--3--3--3--3-----------------------------------1---------3-------|
-------------------------3--3--3--3--2--2--2--2--0-------------1---------3--|

If you want to improvise
|-------------7----5----|
|-5---3--------------7--|
|-----------------------|
|-----------------------|

Verse 2 (Bonehead plays F and G an octave higher)
 There are but...
|------------------------------------------------------------------------------------------------
|------------------------------------------------------------------------3--3--3--3--5--5--5--5--
|-5---5----2-5-----------------------------------5----5----2-5-----------------------------------
|--------------3-5--5----1--1--1--1--3--3--3--3----------------3-5--5----------------------------

-------------------------------------------------------------------------------------------------|
-------------------------------------------------------------------------3--3--3--3--5--5--5--5--|
-5----5----2-5-----------------------------------5----5----2-5-----------------------------------|
---------------3-5--5----1--1--1--1--3--3--3--3----------------3-5--5----------------------------|

Pre-Chorus
Chorus (end of chorus, Noel sings aaaaa, Bonehead doesn't go up)
|---------------------------------------------------------|
|---------------------------------------------------------|
|---------------------------------------------------------|
|-3--3--3--3--3--3--3--3-/15--15--15--15--15--15--15--15\-|

solo
|--------------------------------------------------
|--------------------------------------------------
|-5--5--5--5--5--5--5--5--3--3--3--3--3--3/15--15\-
|--------------------------------------------------

----------------------------------------------------
-----------------------------------------------3-5--
-------3--5--------3--5--------------3----3-5-------
-3--3--------3--3-------3--3--5--3-5----5-----------

--------------------------------------------------
--------------------------------------------------
-5--5--5--5--5--5--5--5--3--3--3--3--3--3/15--15\-
--------------------------------------------------

------------------------------------------------------
----------5--5--5-3-5--3--------3-5--5-5-3------------
-------5-----------------5-3--5-------------5-3-------
-3--3-------------------------------------------5--3--

--------------------------------------------------
--------------------------------------------------
-5--5--5--5--5--5--5--5--3--3--3--3--3--3/15--15\-
--------------------------------------------------

-------------------------------------------------
-------------------------------------------3--5--
-------3--5--------3--5--------5-----3--5--------
-3--3--------3--3--------3--3-----3--------------

--------------------------------------------------
--------------------------------------------------
-5--5--5--5--5--5--5--5--3--3--3--3--3--3/15--15\-
--------------------------------------------------

------------------------------------------------------|
---------------------------5--5--5--5-3-5--5-3-5--5-3-|
----------3-5----------3-5----------------------------|
-3--3--5------3--3--5---------------------------------|

Chorus You see me I've got my magic pie
|--------------------------------------------------
|--------------------------------------------------
|-5--5--5--5--5--5--5--5--3--3--3--3--3--3/15--15\-
|--------------------------------------------------

----------------------------------------------------------
----------------------------------------------------------
-------------5-------------5---------5--3----------5--3---
-3--3--3---5---3--3--3---5---3--3--5------5-3--3-5------5-

-------------------------------------------------
-------------------7--------------------5--------
-5--5--5--5--5--5-----5--3--3--3--3--3-----3/15\-
-------------------------------------------------

-------------------------------------------------------------------------
-------------------------------------------------------------------------
-------------------------------------------------5--5--5--5--5--5--5--5--
-3--3--3--3--3--3--3--3--3--3--3--3--3--3--3--3--------------------------

--------------------------------------------------------------------------
--------------------------------------------------------------------------
-3--3--3--3--3--3/15--15\-------------------------------------------------
--------------------------3--3--3--3--3--3--3--3--3--3--3--3--3--3--3--3--


-----------------------------------------------------------------------------
-----------------------------------------------------------------------------
-5--5--5--5--5--5--5--5--3--3--3--3--3--3--3/15\-----------------------------
--------------------------------------------------3--3--3--3--2--2--2--2--0--

---------------------------
---------------------------
-1-----3-------1-----3-----
----1-----3-------1-----3--

---------------------------------------------------------|
------------5-----------------------------7\3----5----7--|
-1-----3---------1-----3---------------------------------|
----1-----3---------1-----3----\1----3-------------------|

Very end (Noel says "Hello")   7.08
|-------------------------     --------------------------------------------|
|----5-3-------------5----     -----5-3---5--3-----5-3------------5-3------|
|---------5--------5------     ---------5--------------5-3------------5----|
|-3--------------3--------     -3-3------------3-3----------5-3-3-------3--|
            
Hard to play? Try these video lessons and learn fast. | Correct




comments powered by Disqus
↑ Back to top | Tablatures and chords are parodies/interpretations of the original songs. You may use it for private study, scholarship, research or language learning purposes only