>
 >
Lyla 1

Lyla 1 Guitar Tabs

Oasis - Lyla 1 chords, tabs, tablatures, lyrics

Guitar lessons | Add/correct | Request | Top 50 tabs Artists:  A B C D E F G H I J K L M N O P Q R S T U V W X Y Z 0-9

Lyla 1 Guitar Tabs – Oasis

CD, Sheet music, Poster

Do you like Lyla 1? Share with your friends now
Bass TabsChordsChords v2Chords v3Chords v4Chords v5Chords v6Chords v7Drum TabsTabsTabs v2Tabs v3Tabs v4UkuleleUkulele v2
Corrections: thnx to gallagher2006 for correction on the intro
Tuning: Standard(EADGBe) with capo on 3rd fret for both guitars
Everything is relative to capo

Guitar 1: Acoustic
Guitar 2: Slight Distortion Electric

Intro X1

Guitar 1
e|-0-0------------------------0-0-----------------------0-0--|
B|-0-0-2-2--2--2--2--2--2--2--0-0-2-2--2--2--2--2--2--2-0-0--|
G|-0-0-2-2--2--2--2--2--2--2--0-0-2-2--2--2--2--2--2--2-0-0--|
D|-0-0-2-2--2--2--2--2--2--2--0-0-2-2--2--2--2--2--2--2-0-0--|X2
A|-0-0-0-0-----0-----0-----0--0-0-0-0--0--0--0--0--0--0-0-0--|
E|--------------------------------x-x--x--x--x--x--x--x------|


Guitar 2
(comes in after 1 time of Guitar 1 playing)
e|----------------------------|
B|----------------------------|
G|-7-7------------------------|
D|-7-7-7-7--7--7--7--7--7--7--|X2
A|-5-5-7-7--7--7--7--7--7--7--|
E|-----5-5--5--5--5--5--5--5--|

Verse X4

Guitar 1
e|-0--0--0--0--0--0--0--0--3--3--3--3--3--3--3--3--|
B|-1--1--1--1--1--1--1--1--3--3--3--3--2--2--2--2--|
G|-2--2--2--2--2--2--2--2--0--0--0--0--3--3--3--3--|
D|-3--3--3--3--3--3--3--3--0--0--0--0--0--0--0--0--|
A|-------------------------2--2--2--2--------------|
E|-------------------------3--3--3--3--------------|

Guitar 2
e|-------------------------------------------------|
B|-------------------------------------------------|
G|-10-10-10-10-10-10-10-10-------------7--7--7--7--|
D|-10-10-10-10-10-10-10-10-5--5--5--5--7--7--7--7--|
A|-8--8--8--8--8--8--8--8--5--5--5--5--5--5--5--5--|
E|-------------------------3--3--3--3--------------|

Guitar 1
e|-0--0--0--0--0--0--0--0--|
B|-2--2--2--2--2--2--2--2--|
G|-2--2--2--2--2--2--2--2--|
D|-2--2--2--2--2--2--2--2--|
A|-0--0--0--0--0--0--0--0--|
E|-------------------------|

Guitar 2
e|-------------------------|
B|-------------------------|
G|-------------------------|
D|-7--7--7--7--7--7--7--7--|
A|-7--7--7--7--7--7--7--7--|
E|-5--5--5--5--5--5--5--5--|

Pre-Chorus X2 

Guitar 1
e|-3-0-0-0--3-0-0-0---|
B|-2-2-2-2--2-2-2-2---|
G|-3-2-2-2--3-2-2-2---|
D|-0-2-2-2--0-2-2-2---|
A|---0-0-0----0-0-0---|
E|--------------------|

Guitar 2
e|--------------------|
B|--------------------|
G|-7--------7---------|
D|-7-7-7-7--7-7-7-7---|
A|-5-7-7-7--5-7-7-7---|
E|---5-5-5----5-5-5---|

Chorus X1

Guitar 1
e|-0--0--0--0--0-2-0-0--0--0--0--3--3--3--3--3--3--3--3--|
B|-2--2--2--2--2-2-2-2--2--2--2--3--3--3--3--2--2--2--2--|
G|-2--2--2--2--2-3-2-2--2--2--2--0--0--0--0--3--3--3--3--|
D|-2--2--2--2--2-0-2-2--2--2--2--0--0--0--0--0--0--0--0--|X4
A|-0--0--0--0--0---0-0--0--0--0--2--2--2--2--------------|
E|-------------------------------3--3--3--3--------------|

Guitar 2
e|-------------------------------------------------------|
B|-------------------------------------------------------|
G|---------------7---------------------------7--7--7--7--|
D|-7--7--7--7--7-7-7-7--7--7--7--5--5--5--5--7--7--7--7--|X4
A|-7--7--7--7--7-5-7-7--7--7--7--5--5--5--5--5--5--5--5--|
E|-5--5--5--5--5---5-5--5--5--5--3--3--3--3--------------|

Bridge X1

Guitar 1
e|-------------------------|
B|-0~----------------------|
G|-1~----------------------|
D|-2~----------------------|
A|-2~----------------------|
E|-0~----------------------|

Guitar 2
e|-------------------------|
B|-------------------------|
G|-------------------------|
D|-2~-------2--2--2--2--2--|
A|-2~-------2--2--2--2--2--|
E|-0~-------0--0--0--0--0--|

Interlude X1

Guitar 1
e|-0--0--0--0--0--2--2-0-0--0--0--0--0--0--0--3-0-0--|
B|-2--2--2--2--2--2--2-2-2--2--2--2--2--2--2--2-2-2--|
G|-2--2--2--2--2--2--3-2-2--2--2--2--2--2--2--3-2-2--|
D|-2--2--2--2--2--2--0-2-2--2--2--2--2--2--2--0-2-2--|
A|-0--0--0--0--0--0----0-0--0--0--0--0--0--0----0-0--|
E|---------------------------------------------------|

Guitar 2
e|---------------------------------------------------|
B|-10-10-10-10-10-10-10-10--10-10-10-10-10-10-10-10--|
G|---------------------------------------------------|
D|---------------------------------------------------|
A|---------------------------------------------------|
E|---------------------------------------------------|

Verse X4

Pre-Chorus X2 

Chorus X1

Solo X1

Guitar 1
e|0-0-0-0-0-0-2-3-3-3-3-3--0-0-0-0-0-0-0-3-3-3-3-3--0-0-0-0-0-0-0-0-0-0-0-0|
B|2-2-2-2-2-2-2-3-3-3-3-3--2-2-2-2-2-2-2-3-3-3-3-3--2-2-2-2-2-2-2-2-2-2-2-2|
G|2-2-2-2-2-2-2-0-0-0-0-0--2-2-2-2-2-2-2-0-0-0-0-0--2-2-2-2-2-2-2-2-2-2-2-2|
D|2-2-2-2-2-2-2-0-0-0-0-0--2-2-2-2-2-2-2-0-0-0-0-0--2-2-2-2-2-2-2-2-2-2-2-2|
A|0-0-0-0-0-0-0-2-2-2-2-2--0-0-0-0-0-0-0-2-2-2-2-2--0-0-0-0-0-0-0-0-0-0-0-0|
E|--------------3-3-3-3-3----------------3-3-3-3-3-------------------------|

Guitar 2
e|----------------------------------------------------------17---17--17--17|
B|--------------17b--17~~-----------------------17b-17b--17b---17b-17b-17b-|
G|--------------------------------2b--2~~----------------------------------|
D|2-13s0-------------------13s0----------13s0------------------------------|
A|2-------11s0-------------------------------------------------------------|
E|0------------------------------------------------------------------------|

Chorus X2

Song ends when the chorus fades out.





Comments


Popular Oasis tabs & chords
Shock Of The Lightning Bass Tabs
Heart Of A Star Chords
Probably All In The Mind 1 Chords
Guess God Thinks Im Abel Tabs
Half The World Away 2 Tabs
Married With Children Tabs
My Big Mouth 1 Tabs
Sadly Tabs
Talk Tonight 1 Tabs
Live Forever Ukulele


Song lyrics



↑ Back to top | Tablatures and chords are parodies/interpretations of the original songs. You may use it for private study, scholarship, research or language learning purposes only
© 2014 AZChords.com Contact us | Privacy policy | DMCA | Add/correct tabs | Request tabs | Top 50 tabs