» » »

Oasis, Live Forever Tabs (ver.8)

Artists:  A B C D E F G H I J K L M N O P Q R S T U V W X Y Z # 

Live Forever Tabs (ver.8)

Oasis Tabs
Rating:
0/5 (0 votes)
Live Forever lessons Tabs too difficult? Try these video lessons and learn fast
                ------------------------------------------------------------------
                             Live Forever - Oasis

Tuning:Standard

e|-------------------------------------------------------------------------------------|
B|-------------------------------------------------------------------------------------|
G|-------12-14b(16)14-12----12h14-14b(16)14-12----12h14---------12----12-12------------|
D|-12h14-----------------14--------------------14-------14------12h14-12-12-12---------|
A|--------------------------------------------------------------------------12h14------|
E|--------------------------------------------------------------------------------15-15|

e|---------------------------------------------------------------------------|
B|---------------------------------------------------------------------------|
G|-----------12-12h14--14b(16)14-12----12h14-------12----12------------------|
D|-/12-12h14------------------------14-------14----12h14-12--12----12--------|
A|-----------------------------------------------------------12h14-12--------|
E|---------------------------------------------------------------------15\0--|

e|-7/12^^^^^^^12--------------------------------------------------------------|
B|---------------15p12-15p12----12--------------------------------------------|
G|---------------------------14----14p12-14p12----12--14-12-14b(16)14-12h14p12|
D|---------------------------------------------14-----------------------------|
A|----------------------------------------------------------------------------|
E|----------------------------------------------------------------------------|

e|----------------------------------------------------12---------------------|
B|-------------------------------------------12-12-15------------------------|
G|----------------12-------------12-14p12-14---------------------------------|
D|-14-------12h14----------12h14---------------------------------------------|
A|----12h14----------12h14---------------------------------------------------|
E|---------------------------------------------------------------------------|

e|-12^^^^^^^-12------------------------------------------------------------------|
B|--------------15p12-15p12----12------------------------------------------------|
G|--------------------------14----14p12-14p12----12-14p12-14b(16)14-12h14p12-----|
D|--------------------------------------------14-----------------------------14--|
A|-------------------------------------------------------------------------------|
E|-------------------------------------------------------------------------------|

e|--------------------------------------------------------------------------------|
B|--------------------------------------------------------------------------------|
G|-------------12-------------12-------------12-------------12-14b(16)-14p12----12|
D|-------12h14----------12h14----------12h14----------12h14------------------14---|
A|-12h14----------12h14----------12h14----------12h14------------------------------|
|E|--------------------------------------------------------------------------------|



************************************

| /   slide up
| \   slide down
| h   hammer-on
| p   pull-off
| ~   vibrato
| +   harmonic
| x   Mute note
| b   Bend
| pb  Pre-bend
| br  Bend release
| pbr Pre-bend release
| brb Bend release bend

************************************
            

comments powered by Disqus
↑ Back to top | Oasis Tabs for Live Forever. Lyrics for acoustic guitar and electric guitar. Tablatures and chords are parodies/interpretations of the original songs. You may use it for private study, scholarship, research or language learning purposes only