» » »

Live Forever Tabs (ver.5)

Artists:  A B C D E F G H I J K L M N O P Q R S T U V W X Y Z # 

Live Forever Tabs (ver.5)

Oasis
Rating:
0/5 (0 votes)

Hard to play? Try these video lessons and learn fast.
                Oasis - Live Forever

this is the concept tab........................

-----------3---------3------------
--------------3----------3--------
-----------------0-----------0----
----------------------------------
----2h3--------------------------
--3-------------------------------

chord intro G D Am C D...2 time

choros Em D Am C D...2 time
===========LIVE FOREVER
(Gallagher)

(guitar solo at end)
Chords used:

G	(3x0033)
D	(xx0232)
Am7	(x02010)
C	(x32010)
Em	(022000)
Fmaj7	(x33210)


Verse 1
-------
G	       D
Maybe, I don't really wanna know
	 Am7
How your garden grows
C	     D
I just wanna fly


Verse 2
-------
G		D
Lately, did you ever feel the pain
       Am7
in the morning rain
      C		       D	 
as it soaks you to the bone


Chorus
------
Em		     D
  Maybe I just wanna fly
			   Am7
Wanna live I don't wanna die
		   C
Maybe I just wanna breathe
      D		      Em
Maybe I just don't believe
			 D
Maybe you're the same as me
			    Am7
We see things they'll never see
			    Fmaj7
You and I are gonna live forever


End of the song alternates   Am   and   Fmaj7  while Liam's singing
"Gonna live forever" again and again.

***********************************

LIVE FOREVER - GUITAR SOLO

Tab key:

b = bend (12b14 means bend string at the 12th fret to make the note the
14th fret would play without a bend)
r = release bend
h = hammer on
p = pull off
^ = trill (a.k.a. make the note "vibrate)

          G		    D			   Am7        C        D
e----------------------------------------------------------------------------
B----------------------------------------------------------------------------
G--------12--14b16-14-12----12h14---14b16r14-12----12h14------12----12-------
D--12h14-----------------14---------------------14-------14---12h14-12-12----
A----------------------------------------------------------------------12h14-
E----------------------------------------------------------------------------
       G	    D                     Am7       C	     D
e----------------------------------------------------------------------------
B------0---------------------------------------------------------------------
G------0------------12h14--14b16r14-12----12h14-----12----12-----------------
D--12--0--s12-12h14--------------------14-------14--12h14-12-12----12--------
A--12--------------------------------------------------------12h14-12--------
E----------------------------------------------------------------------------
     Em       D						   Am7
e--7s12^^^^^^-12-------------------------------------------------------------
B----------------15-12-15-12----12-------------------------------------------
G----------------------------14----14-12-14-12----12-14-12-14b16-14-12h14-12-
D----------------------------------------------14----------------------------
A----------------------------------------------------------------------------
E----------------------------------------------------------------------------
 		     C                    D		Em      D
e----------------------------------------------------12-12^^^^^-12-----------
B---------------------------------------------s12-15---------------15-12-15--
G-----------------12-14b16-14b16-14p12----12---------------------------------
D--14-------12h14----------------------14------------------------------------
A-----12h14------------------------------------------------------------------
E----------------------------------------------------------------------------
				   Am7 				     Fmaj7
e---------------------------------------------------------------------------
B-12----12------------------------------------------------------------------
G----14----14-12-14-12----12-14-12-14b16-14-12h14-12----------------12-12---
D----------------------14----------------------------14-------12h14---------
A-------------------------------------------------------12h14---------------
E---------------------------------------------------------------------------

e---------------------------------------------------------------------------
B---------------------------------------------------------------------------
G-------------12-12--------------12-14b16-14b16-14p12----12-----------------
D-------12h14--------------12h14----------------------14--------------------
A-12h14--------------12h14--------------------------------------------------
E---------------------------------------------------------------------------
            
Hard to play? Try these video lessons and learn fast. | Correct




comments powered by Disqus
↑ Back to top | Tablatures and chords are parodies/interpretations of the original songs. You may use it for private study, scholarship, research or language learning purposes only