» » »

Oasis, Little James Bass tabs (ver.1)

Artists:  A B C D E F G H I J K L M N O P Q R S T U V W X Y Z # 

Little James Bass tabs (ver.1)

Oasis Tabs
 Rating:
4/5 (4 votes)
Little James lessons Tabs too difficult? Try these video lessons and learn fast
1
                ----------------------------------------------------------------------------
			     Little James - Oasis
----------------------------------------------------------------------------


Tuning: Standard


Verse's:


G|---------------------------------------------------------------------------|
D|---------------------------------------------------------------------------|
A|---------------------------------------------------3-3-3---33--33--33--3-3-|
E|-3-3-3----3--3-3-3--3-3-3----1-1--1-1-1---1-1-1-1--------------------------|


Chorus's:


G|--------------------------------------------------------------------------|
D|--------------------------------------------------------------------------|
A|--------------------------3-3-3-3-3-3-3-3-3-3-3---------------------------|
E|-1-1-1---1-1---1-1-1--1-1------------------------3-3---3-3-3---33--33-3-3-|


 Thats all u have to do, and for the solo, u just play the verses, its quite easy to 
on, just listen to the song and ull hear the the rythm, this is just an idea of how to play 
u no what im sayin, plz rate, and if there are any corrections, let me no
            
Submit corrections

comments powered by Disqus
↑ Back to top | Oasis Bass for Little James. Lyrics for acoustic guitar and electric guitar. 1 Tablatures and chords are parodies/interpretations of the original songs. You may use it for private study, scholarship, research or language learning purposes only