» » »

Oasis, Little By Little W/ Chords Tabs (ver.1)

Artists:  A B C D E F G H I J K L M N O P Q R S T U V W X Y Z # 

Little By Little W/ Chords Tabs (ver.1)

Oasis Tabs
 Rating:
4/5 (4 votes)
Little By Little  W/ Chords lessons Tabs too difficult? Try these video lessons and learn fast
                C   G   A  Em 

|-----------------------|
|-----------------------|
|---5-------------------|
|---5---5---7---2-------|
|---3---5---7---2-------|
|-------3---5-----------|          

-Verse 1-
Em                                          A
We the people fight for our existence
        Em                                                A
We don't claim to be perfect but we're free
        Em                                                     A
We dream our dreams alone with no resistance
Em                                               A
Fading like the stars we wish to be

-Pre-chorus 1-
                            D                      G        D/F#
Y'know I didn't mean what I just said
             Em                                                         A
But my God woke up on the wrong side of His bed

And it just don't matter now

-Chorus 1-
G                       D          A                                     Em     D/F#            G
'Cause little by little, we gave you everything you ever dreamed of
                     D           A                                   Em     D/F#          G
And little by little, the wheels of your life have slowly fallen off
          D           A               Em     D/F#     G
Little by little, you have to live it all in all your life
            D            C          G                  A
And all the time, I just ask myself why are you really here?

-Verse 2-
Em                                      A
True perfection has to be imperfect
  Em                                     A
I know that that sounds foolish but it's true
        Em                                                        A
The day has come and now you'll have to accept

       Em                                             A
The life inside your head we give to you



-Pre-chorus 2-
[Same as Pre-chorus 1]
-Chorus 2
[Same as Chorus 1]
-Guitar Solo-
Part 1

  A                                               A          G      D/F# 
e-----------------------------------------------------------------------------------
B-----------------------------------------------------------------------------------
G---------------6h7-7b9r7-6---------------------------------------------------------
D-5h7~-7~-----------------------7-5-----------5h7~-7~-5-4---------------------------
A------------------------------------------h7---------------------------------------
E-----------------------------------------------------------------------------------

Part 2
[Repeat Part 1]
Part 3
  D                      D                             D/F#          G
e----------------------------------------------------------
B----------------------------------------------7----8-10---
G-5h7~-7~-5---5h7~-7~-5-5h7~-7~----------------------------
D-----------------------------------------------------------
A-----------------------------------------------------------
E-----------------------------------------------------------

Part 4
  D                                 A                                                    G
e----------------------------------------------------------------------------------
B------------------------------10~-10~-10~-10~-10~-10~-10b12r10~-------------------
G-5h7~-7~-5--5h7~-7~---------------------------------------------------------------
D-----------------------------------------------------------------------------------
A-----------------------------------------------------------------------------------
E-----------------------------------------------------------------------------------

-Chorus 3-
G                        D           A                                  Em       D/F#             G
'Cause little by little, we gave you everything you ever dreamed of
                       D           A                        Em     D/F#   G
And little by little, the wheels of your life have slowly fallen off
                D           A                   Em     D/F#         G
Little by little, you have to live it all in all your life
                      D            A             Em               D/F#     G         D     A
And all the time, I just ask myself why are you really here?

[Play this riff starting at the word "here" in the last line of the chorus.
Play it after the first and second lines of the outro too]
  G                 D                 A                 Em
e------------------------------------------------------------------------------------
B-------------------------------------------------------------------------15-15~-
G-11h12---11h12---14---12---11h12---11h12---14---12---11h12---11h12---14--------
D------------------------------------------------------------------------------------
A------------------------------------------------------------------------------------E------------------------------------------------------------------------------------

-Outro
       Em   D/F#   G         D     A
Why am I really here?
       Em       D/F#     G         D     A
Why am I really here?
        Em   D/F#    G         D     C     G     D     C+9
Why am I really here?

[Play this riff after the last line in the outro, starting at the word "here"]
e------------------------------------------------------------------------------------
B-------------------------------------------15-15-17-17b19r17-15-15h17p15~----------
G-11h12---11h12--14—12--11h12---11h12—14---------------------------------------------
D------------------------------------------------------------------------------------
A------------------------------------------------------------------------------------E------------------------------------------------------------------------------------

[Repeat     D     C+9     till fade] C+9=x32032
            
Submit corrections

comments powered by Disqus
↑ Back to top | Oasis Tabs for Little By Little W/ Chords. Lyrics for acoustic guitar and electric guitar. Tablatures and chords are parodies/interpretations of the original songs. You may use it for private study, scholarship, research or language learning purposes only