>
 >
Little By Little W/ Chords

Little By Little W/ Chords Guitar Tabs

Oasis - Little By Little  W/ Chords chords, tabs, tablatures, lyrics

Guitar lessons | Add/correct | Request | Top 50 tabs Artists:  A B C D E F G H I J K L M N O P Q R S T U V W X Y Z 0-9

Little By Little W/ Chords Guitar Tabs – Oasis

CD, Sheet music, Poster

Do you like Little By Little W/ Chords? Share with your friends now
Tabs
C   G   A  Em 

|-----------------------|
|-----------------------|
|---5-------------------|
|---5---5---7---2-------|
|---3---5---7---2-------|
|-------3---5-----------|          

-Verse 1-
Em                                          A
We the people fight for our existence
        Em                                                A
We don't claim to be perfect but we're free
        Em                                                     A
We dream our dreams alone with no resistance
Em                                               A
Fading like the stars we wish to be

-Pre-chorus 1-
                            D                      G        D/F#
Y'know I didn't mean what I just said
             Em                                                         A
But my God woke up on the wrong side of His bed

And it just don't matter now

-Chorus 1-
G                       D          A                                     Em     D/F#            G
'Cause little by little, we gave you everything you ever dreamed of
                     D           A                                   Em     D/F#          G
And little by little, the wheels of your life have slowly fallen off
          D           A               Em     D/F#     G
Little by little, you have to live it all in all your life
            D            C          G                  A
And all the time, I just ask myself why are you really here?

-Verse 2-
Em                                      A
True perfection has to be imperfect
  Em                                     A
I know that that sounds foolish but it's true
        Em                                                        A
The day has come and now you'll have to accept

       Em                                             A
The life inside your head we give to you



-Pre-chorus 2-
[Same as Pre-chorus 1]
-Chorus 2
[Same as Chorus 1]
-Guitar Solo-
Part 1

  A                                               A          G      D/F# 
e-----------------------------------------------------------------------------------
B-----------------------------------------------------------------------------------
G---------------6h7-7b9r7-6---------------------------------------------------------
D-5h7~-7~-----------------------7-5-----------5h7~-7~-5-4---------------------------
A------------------------------------------h7---------------------------------------
E-----------------------------------------------------------------------------------

Part 2
[Repeat Part 1]
Part 3
  D                      D                             D/F#          G
e----------------------------------------------------------
B----------------------------------------------7----8-10---
G-5h7~-7~-5---5h7~-7~-5-5h7~-7~----------------------------
D-----------------------------------------------------------
A-----------------------------------------------------------
E-----------------------------------------------------------

Part 4
  D                                 A                                                    G
e----------------------------------------------------------------------------------
B------------------------------10~-10~-10~-10~-10~-10~-10b12r10~-------------------
G-5h7~-7~-5--5h7~-7~---------------------------------------------------------------
D-----------------------------------------------------------------------------------
A-----------------------------------------------------------------------------------
E-----------------------------------------------------------------------------------

-Chorus 3-
G                        D           A                                  Em       D/F#             G
'Cause little by little, we gave you everything you ever dreamed of
                       D           A                        Em     D/F#   G
And little by little, the wheels of your life have slowly fallen off
                D           A                   Em     D/F#         G
Little by little, you have to live it all in all your life
                      D            A             Em               D/F#     G         D     A
And all the time, I just ask myself why are you really here?

[Play this riff starting at the word "here" in the last line of the chorus.
Play it after the first and second lines of the outro too]
  G                 D                 A                 Em
e------------------------------------------------------------------------------------
B-------------------------------------------------------------------------15-15~-
G-11h12---11h12---14---12---11h12---11h12---14---12---11h12---11h12---14--------
D------------------------------------------------------------------------------------
A------------------------------------------------------------------------------------E------------------------------------------------------------------------------------

-Outro
       Em   D/F#   G         D     A
Why am I really here?
       Em       D/F#     G         D     A
Why am I really here?
        Em   D/F#    G         D     C     G     D     C+9
Why am I really here?

[Play this riff after the last line in the outro, starting at the word "here"]
e------------------------------------------------------------------------------------
B-------------------------------------------15-15-17-17b19r17-15-15h17p15~----------
G-11h12---11h12--1412--11h12---11h1214---------------------------------------------
D------------------------------------------------------------------------------------
A------------------------------------------------------------------------------------E------------------------------------------------------------------------------------

[Repeat     D     C+9     till fade] C+9=x32032





Comments


Popular Oasis tabs & chords
Be Here Now 1 Chords
Let There Be Love 1 Chords
Quiet Ones Chords
Live Forever Drum Tabs
All Around The World Tabs
Help! Tabs
To Be Free Tabs
You've Got To Hide Your Love Away Tabs
Gas Panic Ukulele
Keep The Dream Alive Ukulele


Song lyrics



↑ Back to top | Tablatures and chords are parodies/interpretations of the original songs. You may use it for private study, scholarship, research or language learning purposes only
© 2014 AZChords.com Contact us | Privacy policy | DMCA | Add/correct tabs | Request tabs | Top 50 tabs