» » »

Oasis, Listen Up Bass tabs (ver.1)

Artists:  A B C D E F G H I J K L M N O P Q R S T U V W X Y Z # 

Listen Up Bass tabs (ver.1)

Oasis Tabs
 Rating:
4/5 (4 votes)
Listen Up lessons Tabs too difficult? Try these video lessons and learn fast
1
                ----------------------------------------------------------------------------
			     Listen Up - Oasis
----------------------------------------------------------------------------


Tuning:Standard

 This is a fairly easy bass tab, that damn guigsy had the easiest bass lines, but thts 
oasis is so good, its enjoyable songs, and very easy to play.

Do this for the intro and all the verses:

G|--------------------------------------------------------------------------|
D|--------------------------------------------------------------------------|
A|-----0-0-----5-5-5-5-0-0-0-0-0-0-0-0-0------------------------------------|
E|-2-2-----0-0--------------------------------------------------------------|

Bridge:                                    behind

G|--------------------------------------------------------------------------|
D|--------------------------------------------------------------------------|
A|-----------------------------------------2-2-2-2-2-2-2-2-2-2-2-2-2-2-2-2--|
E|-2-2-2-2-2-2-2-2-2-2-2-2-2-2-2-2-2-2-2-2----------------------------------|

G|---------------------------------------------------------------------------|
D|---------------------------------------------------------------------------|
A|-2-2-2-2-2-2-2-5-5-5-5-5-5-5-5-5-5-5-5-5-----------------------------------|
E|-----------------------------------------0-0-0-0-0-0-0-0-0-0-0-0-0-0-0-0-0-|

Chorus:

G|--------------------------------------------------------------------------|
D|--------------------------------------------------------------------------|
A|-5-5-5-5-0-0-0-0-----------------5-5-5-5-0-0-0-0--------------------------|
E|-----------------0-0-0-0-0-0-0-0-----------------2-2-2-2-2-2-2-2----------|

 but i dont believe in magic.........

G|--------------------------------------------------------------------------|
D|--------------------------------------------------------------------------|
A|-5-5-5-5-0-0-0-0-0-5-5-5-5-5-0-0-0-0-0-2-2-2-2-2-5-5-5-5-5-5-0-0-0-0-0-0--|
E|--------------------------------------------------------------------------|

 repeat tht open, 5, 2 as he keeps on sayin, "no i dont mind, bein on my own"

after the chorus its goes to the verse again so just use tht bass line at the top, then 
goes to the bridge and then the choruse again. After the chorus comes the solo.

Solo:

G|-----------------------------------------------------------------------|
D|-----------------------------------------------------------------------| x2
A|-----0-0-----5-5-5-5-0-0-0-0-0-0-0-0-0---------------------------------|
E|-2-2-----0-0-----------------------------------------------------------|

so u do tht line twice^^^^^^^, its the same as the intro

G|--------------------------------------------------------------------------|
D|--------------------------------------------------------------------------|
A|-----------------------------------------2-2-2-2-2-2-2-2-2-2-2-2-2-2-2-2--|
E|-2-2-2-2-2-2-2-2-2-2-2-2-2-2-2-2-2-2-2-2----------------------------------|

G|---------------------------------------------------------------------------|
D|---------------------------------------------------------------------------|
A|-2-2-2-2-2-2-2-5-5-5-5-5-5-5-5-5-5-5-5-5-----------------------------------|
E|-----------------------------------------0-0-0-0-0-0-0-0-0-0-0-0-0-0-0-0-0-|

you do tht once^^^^^, and thts the same as the bridge

G|--------------------------------------------------------------------------|
D|--------------------------------------------------------------------------|
A|-2-2-2-2-2-2-5-5-5-5-5-5-5------------------------------------------------|
E|---------------------------0-0-0-0-0-0-0-0-0-0-0-0-0-0--------------------|

after tht, it goes straight into the chorus again, then the outro goes lik this, its 
very easy, u only use the A string and u just keep hitting it at a slow pace

Outro:

A|-0---------0----------0-----------0----------0----------0----------0------

 and thts all she wrote, its very simple, listen to the song to get the right rythm 
and for the outro, just kepp hitting it slowly and thts it....peace out, OASIS!!!!!!
            
Submit corrections

comments powered by Disqus
↑ Back to top | Oasis Bass for Listen Up. Lyrics for acoustic guitar and electric guitar. 1 Tablatures and chords are parodies/interpretations of the original songs. You may use it for private study, scholarship, research or language learning purposes only