» » »

Let There Be Love Bass tabs (ver.1)

Artists:  A B C D E F G H I J K L M N O P Q R S T U V W X Y Z # 

Let There Be Love Bass tabs (ver.1)

Oasis
Rating:
0/5 (0 votes)

Hard to play? Try these video lessons and learn fast.
                so basically there aren't any tabs up and its simple no bass for the majority of this...
please rate and enjoy

bass comes in at the middle 8 ('Come on baby blue...') at which point it goes like this
you play these on every beat
G|------------------------------------------------|
D|------------------------------------------------|
A|------------------------------------5~-5~-5~-5~-|
E|5~-5~-5~-5~-4~-4~-4~-4~-3~-3~-3~-3~-------------|

G|------------------------------------------------|
D|3~-3~-3~-3~-------------------------------------|
A|------------5~-5~-5~-5~-------------------------|
E|------------------------3~-3~-3~-3~-4~-4~-4~-4~-|


but if it makes you happy...
G|------------------------------------------------|
D|------------------------------------------------|
A|0~-0~-0~-0~-3~-3~-3~-3~-------------------------|
E|------------------------0~-0~-0~-0~-5~-5~-3~-3~-|

G|------------------------------------------------|
D|3~-3~-3~-3~-------------------------------------|
A|------------5~-5~-5~-5~-------------------------|
E|------------------------3~-3~-3~-3~-4~-4~-4~-4~-|

instrumental bit

G|------------------------------------------------|
D|3~-3~-3~-3~-------------------------------------|
A|------------5~-5~-5~-5~-------------------------|
E|------------------------3~-3~-3~-3~-4~-4~-4~-4~-| x 2

end on 
G|----|
D|----|
A|/7~-|
E|----|

no bass for the ve
chorus

G|-------------------------------------------------|
D|-------------------------------------------------|
A|3~-3~-3~-3~-1~-1~-1~-1~-0-~0-~0-~0-~-------------|
E|-------------------------------------3~-3~-3~-3~-| x 4

G|------------------------|
D|------------------------|
A|3~-3~-3~-3~-1~-1~-1~-1~-|
E|------------------------|

ending 

G|------------------------|
D|------------------------|
A|1-1-1-3~-3~-3~-3~-3~-3~-|
E|------------------------|x 5

end on 
G|--------|
D|--------|
A|--------|
E|/8~~~~~~|

Key
|--------|
|~sustain|
|/Slide  |
|--------|

thanks enjoy :)
            
Hard to play? Try these video lessons and learn fast. | Correct




comments powered by Disqus
↑ Back to top | Tablatures and chords are parodies/interpretations of the original songs. You may use it for private study, scholarship, research or language learning purposes only