>
 >
Let There Be Love

Let There Be Love Guitar Tabs

Oasis - Let There Be Love chords, tabs, tablatures, lyrics

Guitar lessons | Add/correct | Request | Top 50 tabs Artists:  A B C D E F G H I J K L M N O P Q R S T U V W X Y Z 0-9

Let There Be Love Guitar Tabs – Oasis

CD, Sheet music, Poster

Do you like Let There Be Love? Share with your friends now
Bass TabsChordsChords v2Chords v3Chords v4Chords v5Chords v6Drum TabsTabsUkulele
                              Let There Be Love                                 


                                                                           Oasis
Acoustic Guitar


     C                          Caug                       
     E  E  E  E  E  E  E  E     E    E  E  E  E  E  E  E   
E||--0-----0-----0-----0-----|--0-------0-----0-----0-----|
B||--1-----1-----1-----1-----|--1-------1-----1-----1-----|
G||--0-----0-----0-----0-----|--1-------1-----1-----1-----|
D||--2--2--2-----2--2--2-----|--2----2--2-----2--2--2-----|
A||--3--3--3--3--3--3--3--3--|--3----3--3--3--3--3--3--3--|
E||--------------------------|----------------------------|


                                           Who kicked a           
  C                          Caug                                 
  E  E  E  E  E  E  E  E     E    E  E  E  E            E  E  E   
--0-----0-----0-----0-----|--0-------0-----0---------------0-----|
--1-----1-----1-----1-----|--1-------1-----1---------------1-----|
--0-----0-----0-----0-----|--1-------1-----1---------------1-----|
--2--2--2-----2--2--2-----|--2----2--2-----2------------2--2-----|
--3--3--3--3--3--3--3--3--|--3----3--3--3--3------------3--3--3--|
--------------------------|--------------------------------------|


  hole    in  the  sky  so  the                  
  C                                              
  E    E  E                      E  E  E  E  E   
--0-------0-------------------------0-----0-----|
--1-------1-------------------------1-----1-----|
--0-------0-------------------------0-----0-----|
--2----2--2-------------------------2--2--2-----|
--3----3--3----------------------3--3--3--3--3--|
------------------------------------------------|


  heavens            can   cry   over               me                       
  Caug                                              Am                       
  E       E  E  E  E                    E  E  E     E  E  E  E  E  E  E  E   
--0----------0-----0-----------------------0-----|--0-----0-----0-----0-----|
--1----------1-----1-----------------------1-----|--1-----1-----1-----1-----|
--1----------1-----1-----------------------1-----|--2-----2-----2-----2-----|
--2-------2--2-----2--------------------2--2-----|--2--2--2-----2--2--2-----|
--3-------3--3--3--3--------------------3--3--3--|--0--0--0--0--0--0--0--0--|
-------------------------------------------------|--------------------------|


               who stole   the            
  F7M                                     
  E   E  E  E  E                E  E  E   
--0------0-----0-------------------0-----|
--1------1-----1-------------------1-----|
--2------2-----2-------------------2-----|
--3---3--3-----3----------------3--3-----|
--3---3--3--3--3----------------3--3--3--|
-----------------------------------------|


  sole from           sun   in   a              
  C                                             
  E         E  E  E  E                E  E  E   
--0------------0-----0-------------------0-----|
--1------------1-----1-------------------1-----|
--0------------0-----0-------------------0-----|
--2---------2--2-----2----------------2--2-----|
--3---------3--3--3--3----------------3--3--3--|
-----------------------------------------------|


  world  come   undone  at   the                        
  Caug                                                   
  E                                E  E  E  E  E  E  E   
--0-----------------------------------0-----0-----0-----|
--1-----------------------------------1-----1-----1-----|
--1-----------------------------------1-----1-----1-----|
--2--------------------------------2--2-----2--2--2-----|
--3--------------------------------3--3--3--3--3--3--3--|
--------------------------------------------------------|


  seams                                      let there   be           
  Am                            F7M                                   
  E     E  E  E  E  E  E  E     E   E  E  E  E              E  E  E   
--0--------0-----0-----0-----|--0------0-----0-----------------0-----|
--1--------1-----1-----1-----|--1------1-----1-----------------1-----|
--2--------2-----2-----2-----|--2------2-----2-----------------2-----|
--2-----2--2-----2--2--2-----|--3---3--3-----3--------------3--3-----|
--0-----0--0--0--0--0--0--0--|--3---3--3--3--3--------------3--3--3--|
-----------------------------|---------------------------------------|


  love                                           let there       be  
  C                            Gm7add13                              
  E    E  E  E  E  E  E  E     E        E  E  E  E         E  E  E   
--0-------0-----0-----0-----|--0-----------0-----0------------0-----|
--1-------1-----1-----1-----|--3-----------3-----3------------3-----|
--0-------0-----0-----0-----|--0-----------0-----0------------0-----|
--2----2--2-----2--2--2-----|--3--------3--3-----3---------3--3-----|
--3----3--3--3--3--3--3--3--|--1--------1--1--1--1---------1--1--1--|
----------------------------|---------------------------------------|


  lo - -ove                                      I hope the           
  Am                                F7M                               
  E         E  E  E  E  E  E  E     E   E  E  E  E          E  E  E   
--0------------0-----0-----0-----|--0------0-----0-------------0-----|
--1------------1-----1-----1-----|--1------1-----1-------------1-----|
--2------------2-----2-----2-----|--2------2-----2-------------2-----|
--2---------2--2-----2--2--2-----|--3---3--3-----3----------3--3-----|
--0---------0--0--0--0--0--0--0--|--3---3--3--3--3----------3--3--3--|
---------------------------------|-----------------------------------|


  weather   is   calm   as   you                       
  C                                                    
  E                              E  E  E  E  E  E  E   
--0---------------------------------0-----0-----0-----|
--1---------------------------------1-----1-----1-----|
--0---------------------------------0-----0-----0-----|
--2------------------------------2--2-----2--2--2-----|
--3------------------------------3--3--3--3--3--3--3--|
------------------------------------------------------|


  sail   up   your   heavenly                       
  Caug                                              
  E                           E  E  E  E  E  E  E   
--0------------------------------0-----0-----0-----|
--1------------------------------1-----1-----1-----|
--1------------------------------1-----1-----1-----|
--2---------------------------2--2-----2--2--2-----|
--3---------------------------3--3--3--3--3--3--3--|
---------------------------------------------------|


  stream                                      suspernded            
  Am                             F7M                                
  E      E  E  E  E  E  E  E     E   E  E  E  E           E  E  E   
--0---------0-----0-----0-----|--0------0-----0--------------0-----|
--1---------1-----1-----1-----|--1------1-----1--------------1-----|
--2---------2-----2-----2-----|--2------2-----2--------------2-----|
--2------2--2-----2--2--2-----|--3---3--3-----3-----------3--3-----|
--0------0--0--0--0--0--0--0--|--3---3--3--3--3-----------3--3--3--|
------------------------------|------------------------------------|


  clear   in    the   sky   are   the                        
  C                                                          
  E                                    E  E  E  E  E  E  E   
--0---------------------------------------0-----0-----0-----|
--1---------------------------------------1-----1-----1-----|
--0---------------------------------------0-----0-----0-----|
--2------------------------------------2--2-----2--2--2-----|
--3------------------------------------3--3--3--3--3--3--3--|
------------------------------------------------------------|


  words   that   we   sing   in   our                         
  Caug                                                        
  E                                     E  E  E  E  E  E  E   
--0----------------------------------------0-----0-----0-----|
--1----------------------------------------1-----1-----1-----|
--1----------------------------------------1-----1-----1-----|
--2-------------------------------------2--2-----2--2--2-----|
--3-------------------------------------3--3--3--3--3--3--3--|
-------------------------------------------------------------|


  dreams                                      let there be           
  Am                             F7M          F7M                    
  E      E  E  E  E  E  E  E     E   E  E  E  E            E  E  E   
--0---------0-----0-----0-----|--0------0-----0---------------0-----|
--1---------1-----1-----1-----|--1------1-----1---------------1-----|
--2---------2-----2-----2-----|--2------2-----2---------------2-----|
--2------2--2-----2--2--2-----|--3---3--3-----3------------3--3-----|
--0------0--0--0--0--0--0--0--|--3---3--3--3--3------------3--3--3--|
------------------------------|-------------------------------------|


  love                                           let there be           
  C                            Gm7add13                                 
  E    E  E  E  E  E  E  E     E        E  E  E  E            E  E  E   
--0-------0-----0-----0-----|--0-----------0-----0---------------0-----|
--1-------1-----1-----1-----|--3-----------3-----3---------------3-----|
--0-------0-----0-----0-----|--0-----------0-----0---------------0-----|
--2----2--2-----2--2--2-----|--3--------3--3-----3------------3--3-----|
--3----3--3--3--3--3--3--3--|--1--------1--1--1--1------------1--1--1--|
----------------------------|------------------------------------------|


  love                                      let there be           
  Am                           F7M                                 
  E    E  E  E  E  E  E  E     E   E  E  E  E            E  E  E   
--0-------0-----0-----0-----|--0------0-----0---------------0-----|
--1-------1-----1-----1-----|--1------1-----1---------------1-----|
--2-------2-----2-----2-----|--2------2-----2---------------2-----|
--2----2--2-----2--2--2-----|--3---3--3-----3------------3--3-----|
--0----0--0--0--0--0--0--0--|--3---3--3--3--3------------3--3--3--|
----------------------------|-------------------------------------|


  love                                           let there be           
  C                            Gm7add13                                 
  E    E  E  E  E  E  E  E     E        E  E  E  E            E  E  E   
--0-------0-----0-----0-----|--0-----------0-----0---------------0-----|
--1-------1-----1-----1-----|--3-----------3-----3---------------3-----|
--0-------0-----0-----0-----|--0-----------0-----0---------------0-----|
--2----2--2-----2--2--2-----|--3--------3--3-----3------------3--3-----|
--3----3--3--3--3--3--3--3--|--1--------1--1--1--1------------1--1--1--|
----------------------------|------------------------------------------|


  love                                                   
  Am                           F7M                       
  E    E  E  E  E  E  E  E     E   E  E  E  E  E  E  E   
--0-------0-----0-----0-----|--0------0-----0-----0-----|
--1-------1-----1-----1-----|--1------1-----1-----1-----|
--2-------2-----2-----2-----|--2------2-----2-----2-----|
--2----2--2-----2--2--2-----|--3---3--3-----3--3--3-----|
--0----0--0--0--0--0--0--0--|--3---3--3--3--3--3--3--3--|
----------------------------|---------------------------|


  come    on           baby            blue                       
  Am                                                              
  E                                         E  E  E  E  E  E  E   
--0--------------------------------------------0-----0-----0-----|
--1--------------------------------------------1-----1-----1-----|
--2--------------------------------------------2-----2-----2-----|
--2-----------------------------------------2--2-----2--2--2-----|
--0-----------------------------------------0--0--0--0--0--0--0--|
-----------------------------------------------------------------|


              shake up  your           
  E7                                   
  E  E  E  E  E              E  E  E   
--0-----0-----0-----------------0-----|
--0-----0-----0-----------------0-----|
--1-----1-----1-----------------1-----|
--0--0--0-----0--------------0--0-----|
--2--2--2--2--2--------------2--2--2--|
--0--0--0--0--0--------------0--0--0--|


  tyred       eyes             the world is        
  G                                                
  E                E  E  E  E  E            E  E   
--3-------------------3-----3---------------3-----|
--3-------------------3-----3---------------3-----|
--0-------------------0-----0---------------0-----|
--0----------------0--0-----0--0------------0-----|
--2----------------2--2--2--2--2------------2--2--|
--3----------------3--3--3--3--3------------3--3--|


  waiting for you                may  all     
  D                                           
  E               E  E  E  E  E  E        E   
--2------------------2-----2-----2-----------|
--3------------------3-----3-----3-----------|
--2---------------2--2-----2--2--2-----------|
--0---------------0--0-----0--0--0-----------|
--0---------------0--0--0--0--0--0--------0--|
--2---------------2--2--2--2--2--2--------2--|


       all    your    dreaming                  fill  
  F                                                   
  E  E                         E  E  E  E  E  E       
--1----------------------------1-----1-----1---------|
--1----------------------------1-----1-----1---------|
--2----------------------------2-----2-----2---------|
--3--3-------------------------3-----3--3--3---------|
--3--3-------------------------3--3--3--3--3--3------|
-----------------------------------------------------|


       the   em-------------pty             sky                    
  D                                                                
  E  E                                          E  E  E  E  E  E   
--2---------------------------------------------2-----2-----2-----|
--3---------------------------------------------3-----3-----3-----|
--2---------------------------------------------2-----2-----2-----|
--0--0------------------------------------------0-----0--0--0-----|
--0--0------------------------------------------0--0--0--0--0--0--|
--2--2------------------------------------------2--2--2--2--2--2--|


                                         but  if  it            
  G                          E7                                 
  E  E  E  E  E  E  E  E     E  E  E  E  E            E  E  E   
--3-----3-----3-----3-----|--0-----0-----0---------------0-----|
--3-----3-----3-----3-----|--0-----0-----0---------------0-----|
--0-----0-----0-----0-----|--1-----1-----1---------------1-----|
--0--0--0-----0--0--0-----|--0--0--0-----0------------0--0-----|
--2--2--2--2--2--2--2--2--|--2--2--2--2--2------------2--2--2--|
--3--3--3--3--3--3--3--3--|--0--0--0--0--0------------0--0--0--|


        makes  you  happy                 
  Am                                      
  E  E  E                 E  E  E  E  E   
--0-----0--------------------0-----0-----|
--1-----1--------------------1-----1-----|
--2-----2--------------------2-----2-----|
--2--2--2--------------------2--2--2-----|
--0--0--0-----------------0--0--0--0--0--|
-----------------------------------------|


  keep   on   clapping                       
  C                                          
  E                    E  E  E  E  E  E  E   
--0-----------------------0-----0-----0-----|
--1-----------------------1-----1-----1-----|
--0-----------------------0-----0-----0-----|
--2--------------------2--2-----2--2--2-----|
--3--------------------3--3--3--3--3--3--3--|
--------------------------------------------|


  just remember I'll be                 by   your   side     
  E7                                                         
  E                      E  E  E  E  E  E                E   
--0-------------------------0-----0-----0-------------------|
--0-------------------------0-----0-----0-------------------|
--1-------------------------1-----1-----1-------------------|
--0----------------------0--0-----0--0--0-------------------|
--2----------------------2--2--2--2--2--2----------------2--|
--0----------------------0--0--0--0--0--0----------------0--|


                  and   if   you         
  Am          C/A                        
  E  E  E  E  E   E               E  E   
--0-----0-----0-------------------0-----|
--1-----1-----1-------------------1-----|
--2-----2-----0-------------------0-----|
--2--2--2-----2---2---------------2-----|
--0--0--0--0--0---0---------------0--0--|
----------------------------------------|


     only   go                            it's                     
  F                                                                
  E  E                                          E  E  E  E  E  E   
--1---------------------------------------------1-----1-----1-----|
--1---------------------------------------------1-----1-----1-----|
--2---------------------------------------------2-----2-----2-----|
--3--3------------------------------------------3-----3--3--3-----|
--3--3------------------------------------------3--3--3--3--3--3--|
------------------------------------------------------------------|


  gonna      pass      you                           
  D                                                  
  E                            E  E  E  E  E  E  E   
--2-------------------------------2-----2-----2-----|
--3-------------------------------3-----3-----3-----|
--2-------------------------------2-----2-----2-----|
--0----------------------------0--0-----0--0--0-----|
--0----------------------------0--0--0--0--0--0--0--|
--2----------------------------2--2--2--2--2--2--2--|


  by------------------------------------------------                       
  G                                                                        
  E                                                  E  E  E  E  E  E  E   
--3-----------------------------------------------------3-----3-----3-----|
--3-----------------------------------------------------3-----3-----3-----|
--0-----------------------------------------------------0-----0-----0-----|
--0--------------------------------------------------0--0-----0--0--0-----|
--2--------------------------------------------------2--2--2--2--2--2--2--|
--3--------------------------------------------------3--3--3--3--3--3--3--|


  ye                                                  
  E7                         F                        
  E  E  E  E  E  E  E  E     E  E  E  E  E  E  E  E   
--0-----0-----0-----0-----|--1-----1-----1-----1-----|
--0-----0-----0-----0-----|--1-----1-----1-----1-----|
--1-----1-----1-----1-----|--2-----2-----2-----2-----|
--0--0--0-----0--0--0-----|--3--3--3-----3--3--3-----|
--2--2--2--2--2--2--2--2--|--3--3--3--3--3--3--3--3--|
--0--0--0--0--0--0--0--0--|--------------------------|


  D                          G                        
  E  E  E  E  E  E  E  E     E  E  E  E  E  E  E  E   
--2-----2-----2-----2-----|--3-----3-----3-----3-----|
--3-----3-----3-----3-----|--3-----3-----3-----3-----|
--2-----2-----2-----2-----|--0-----0-----0-----0-----|
--0--0--0-----0--0--0-----|--0--0--0-----0--0--0-----|
--0--0--0--0--0--0--0--0--|--2--2--2--2--2--2--2--2--|
--2--2--2--2--2--2--2--2--|--3--3--3--3--3--3--3--3--|


  E7                         F                        
  E  E  E  E  E  E  E  E     E  E  E  E  E  E  E  E   
--0-----0-----0-----0-----|--1-----1-----1-----1-----|
--0-----0-----0-----0-----|--1-----1-----1-----1-----|
--1-----1-----1-----1-----|--2-----2-----2-----2-----|
--0--0--0-----0--0--0-----|--3--3--3-----3--3--3-----|
--2--2--2--2--2--2--2--2--|--3--3--3--3--3--3--3--3--|
--0--0--0--0--0--0--0--0--|--------------------------|


  D                          G                        
  E  E  E  E  E  E  E  E     E  E  E  E  E  E  E  E   
--2-----2-----2-----2-----|--3-----3-----3-----3-----|
--3-----3-----3-----3-----|--3-----3-----3-----3-----|
--2-----2-----2-----2-----|--0-----0-----0-----0-----|
--0--0--0-----0--0--0-----|--0--0--0-----0--0--0-----|
--0--0--0--0--0--0--0--0--|--2--2--2--2--2--2--2--2--|
--2--2--2--2--2--2--2--2--|--3--3--3--3--3--3--3--3--|


  E7                         E7                                    
  E  E  E  E  E  E  E  E     W                   W                 
--0-----0-----0-----0-----|--0----------------|--L----------------|
--0-----0-----0-----0-----|--0----------------|--L----------------|
--1-----1-----1-----1-----|--1----------------|--L----------------|
--0--0--0-----0--0--0-----|--0----------------|--L----------------|
--2--2--2--2--2--2--2--2--|--2----------------|--L----------------|
--0--0--0--0--0--0--0--0--|--0----------------|--L----------------|


                      Who kicked a      
  W                   W                 
--L----------------|--L----------------|
--L----------------|--L----------------|
--L----------------|--L----------------|
--L----------------|--L----------------|
--L----------------|--L----------------|
--L----------------|--L----------------|


  hole   in   the   sky   so   the                       
  C                                                      
  E                                E  E  E  E  E  E  E   
--0-----------------------------------0-----0-----0-----|
--1-----------------------------------1-----1-----1-----|
--0-----------------------------------0-----0-----0-----|
--2--------------------------------2--2-----2--2--2-----|
--3--------------------------------3--3--3--3--3--3--3--|
--------------------------------------------------------|


  Caug                         Am                       
  E    E  E  E  E  E  E  E     E  E  E  E  E  E  E  E   
--0-------0-----0-----0-----|--0-----0-----0-----0-----|
--1-------1-----1-----1-----|--1-----1-----1-----1-----|
--1-------1-----1-----1-----|--2-----2-----2-----2-----|
--2----2--2-----2--2--2-----|--2--2--2-----2--2--2-----|
--3----3--3--3--3--3--3--3--|--0--0--0--0--0--0--0--0--|
----------------------------|--------------------------|


  F7M                         C                        
  E   E  E  E  E  E  E  E     E  E  E  E  E  E  E  E   
--0------0-----0-----0-----|--0-----0-----0-----0-----|
--1------1-----1-----1-----|--1-----1-----1-----1-----|
--2------2-----2-----2-----|--0-----0-----0-----0-----|
--3---3--3-----3--3--3-----|--2--2--2-----2--2--2-----|
--3---3--3--3--3--3--3--3--|--3--3--3--3--3--3--3--3--|
---------------------------|--------------------------|


  Caug                         Am                       
  E    E  E  E  E  E  E  E     E  E  E  E  E  E  E  E   
--0-------0-----0-----0-----|--0-----0-----0-----0-----|
--1-------1-----1-----1-----|--1-----1-----1-----1-----|
--1-------1-----1-----1-----|--2-----2-----2-----2-----|
--2----2--2-----2--2--2-----|--2--2--2-----2--2--2-----|
--3----3--3--3--3--3--3--3--|--0--0--0--0--0--0--0--0--|
----------------------------|--------------------------|


  F7M                         C                        
  E   E  E  E  E  E  E  E     E  E  E  E  E  E  E  E   
--0------0-----0-----0-----|--0-----0-----0-----0-----|
--1------1-----1-----1-----|--1-----1-----1-----1-----|
--2------2-----2-----2-----|--0-----0-----0-----0-----|
--3---3--3-----3--3--3-----|--2--2--2-----2--2--2-----|
--3---3--3--3--3--3--3--3--|--3--3--3--3--3--3--3--3--|
---------------------------|--------------------------|


  Gm7add13                         Am                       
  E        E  E  E  E  E  E  E     E  E  E  E  E  E  E  E   
--0-----------0-----0-----0-----|--0-----0-----0-----0-----|
--3-----------3-----3-----3-----|--1-----1-----1-----1-----|
--0-----------0-----0-----0-----|--2-----2-----2-----2-----|
--3--------3--3-----3--3--3-----|--2--2--2-----2--2--2-----|
--1--------1--1--1--1--1--1--1--|--0--0--0--0--0--0--0--0--|
--------------------------------|--------------------------|


  F7M                         C                        
  E   E  E  E  E  E  E  E     E  E  E  E  E  E  E  E   
--0------0-----0-----0-----|--0-----0-----0-----0-----|
--1------1-----1-----1-----|--1-----1-----1-----1-----|
--2------2-----2-----2-----|--0-----0-----0-----0-----|
--3---3--3-----3--3--3-----|--2--2--2-----2--2--2-----|
--3---3--3--3--3--3--3--3--|--3--3--3--3--3--3--3--3--|
---------------------------|--------------------------|


  Gm7add13                         Am                       
  E        E  E  E  E  E  E  E     E  E  E  E  E  E  E  E   
--0-----------0-----0-----0-----|--0-----0-----0-----0-----|
--3-----------3-----3-----3-----|--1-----1-----1-----1-----|
--0-----------0-----0-----0-----|--2-----2-----2-----2-----|
--3--------3--3-----3--3--3-----|--2--2--2-----2--2--2-----|
--1--------1--1--1--1--1--1--1--|--0--0--0--0--0--0--0--0--|
--------------------------------|--------------------------|


  F7M                         C                        
  E   E  E  E  E  E  E  E     E  E  E  E  E  E  E  E   
--0------0-----0-----0-----|--0-----0-----0-----0-----|
--1------1-----1-----1-----|--1-----1-----1-----1-----|
--2------2-----2-----2-----|--0-----0-----0-----0-----|
--3---3--3-----3--3--3-----|--2--2--2-----2--2--2-----|
--3---3--3--3--3--3--3--3--|--3--3--3--3--3--3--3--3--|
---------------------------|--------------------------|


  Gm7add13                         Am                       
  E        E  E  E  E  E  E  E     E  E  E  E  E  E  E  E   
--0-----------0-----0-----0-----|--0-----0-----0-----0-----|
--3-----------3-----3-----3-----|--1-----1-----1-----1-----|
--0-----------0-----0-----0-----|--2-----2-----2-----2-----|
--3--------3--3-----3--3--3-----|--2--2--2-----2--2--2-----|
--1--------1--1--1--1--1--1--1--|--0--0--0--0--0--0--0--0--|
--------------------------------|--------------------------|


  F7M                         C                        
  E   E  E  E  E  E  E  E     E  E  E  E  E  E  E  E   
--0------0-----0-----0-----|--0-----0-----0-----0-----|
--1------1-----1-----1-----|--1-----1-----1-----1-----|
--2------2-----2-----2-----|--0-----0-----0-----0-----|
--3---3--3-----3--3--3-----|--2--2--2-----2--2--2-----|
--3---3--3--3--3--3--3--3--|--3--3--3--3--3--3--3--3--|
---------------------------|--------------------------|


  Gm7add13                         Am                       
  E        E  E  E  E  E  E  E     E  E  E  E  E  E  E  E   
--0-----------0-----0-----0-----|--0-----0-----0-----0-----|
--3-----------3-----3-----3-----|--1-----1-----1-----1-----|
--0-----------0-----0-----0-----|--2-----2-----2-----2-----|
--3--------3--3-----3--3--3-----|--2--2--2-----2--2--2-----|
--1--------1--1--1--1--1--1--1--|--0--0--0--0--0--0--0--0--|
--------------------------------|--------------------------|


  F7M                         C                            Gm7add13          
  E   E  E  E  E  E  E  E     W                   H        E.       S E  E   
--0------0-----0-----0-----|--0----------------|--L--------0--------0-L--0--|
--1------1-----1-----1-----|--1----------------|--L--------3--------3-L--3--|
--2------2-----2-----2-----|--0----------------|--L--------0--------0-L--0--|
--3---3--3-----3--3--3-----|--2----------------|--L--------3--------3-L--3--|
--3---3--3--3--3--3--3--3--|--3----------------|--L--------1--------1-L--1--|
---------------------------|-------------------|----------------------------|


  C                                      Gm7add13          
  E  E  E  E  E  E  E  E     E  E  E  E  E.       S E  E   
--0-----0-----0-----0-----|--0-----0-----0--------0-L--0--|
--1-----1-----1-----1-----|--1-----1-----3--------3-L--3--|
--0-----0-----0-----0-----|--0-----0-----0--------0-L--0--|
--2--2--2-----2--2--2-----|--2--2--2-----3--------3-L--3--|
--3--3--3--3--3--3--3--3--|--3--3--3--3--1--------1-L--1--|
--------------------------|-------------------------------|


  C                                      Gm7add13          
  E  E  E  E  E  E  E  E     E  E  E  E  E.       S E  E   
--0-----0-----0-----0-----|--0-----0-----0--------0-L--0--|
--1-----1-----1-----1-----|--1-----1-----3--------3-L--3--|
--0-----0-----0-----0-----|--0-----0-----0--------0-L--0--|
--2--2--2-----2--2--2-----|--2--2--2-----3--------3-L--3--|
--3--3--3--3--3--3--3--3--|--3--3--3--3--1--------1-L--1--|
--------------------------|-------------------------------|


  C                                      Gm7add13          
  E  E  E  E  E  E  E  E     E  E  E  E  E.       S E  E   
--0-----0-----0-----0-----|--0-----0-----0--------0-L--0--|
--1-----1-----1-----1-----|--1-----1-----3--------3-L--3--|
--0-----0-----0-----0-----|--0-----0-----0--------0-L--0--|
--2--2--2-----2--2--2-----|--2--2--2-----3--------3-L--3--|
--3--3--3--3--3--3--3--3--|--3--3--3--3--1--------1-L--1--|
--------------------------|-------------------------------|


  C                                      Gm7add13            C                 
  E  E  E  E  E  E  E  E     E  E  E  E  E.       S E  E     W                 
--0-----0-----0-----0-----|--0-----0-----0--------0-L--0--|--0----------------|
--1-----1-----1-----1-----|--1-----1-----3--------3-L--3--|--1----------------|
--0-----0-----0-----0-----|--0-----0-----0--------0-L--0--|--0----------------|
--2--2--2-----2--2--2-----|--2--2--2-----3--------3-L--3--|--2----------------|
--3--3--3--3--3--3--3--3--|--3--3--3--3--1--------1-L--1--|--3----------------|
--------------------------|-------------------------------|-------------------|





Comments


Popular Oasis tabs & chords
I Can See A Liar Bass Tabs
Wonder Wall Bass Tabs
Dyer Wanna Be A Spaceman 2 Chords
Probably All In The Mind 1 Chords
Sitting Here In Silence On My Own Chords
Acquiesce 2 Tabs
Don't Go Away Tabs
Half The World Away 2 Tabs
Lyla Tabs
She Is Love Tabs


Song lyrics



↑ Back to top | Tablatures and chords are parodies/interpretations of the original songs. You may use it for private study, scholarship, research or language learning purposes only
© 2014 AZChords.com Contact us | Privacy policy | DMCA | Add/correct tabs | Request tabs | Top 50 tabs