» » »

Oasis, Let's All Make Believe Bass tabs (ver.1)

Artists:  A B C D E F G H I J K L M N O P Q R S T U V W X Y Z # 

Let's All Make Believe Bass tabs (ver.1)

Oasis Tabs
 Rating:
4/5 (4 votes)
Let's All Make Believe lessons Tabs too difficult? Try these video lessons and learn fast
                "Lets All Make Belive from the single Go Let It Out

FILL       BASS THOUGHT SOLO
G|-------|  |----------------------|
D|-5/7~~-|  |-7/12-10-5-7-------7--|
A|-------|  |------------7-0-5-7---| x3
E|-------|  |----------------------|

ON THE LAST TIME
G|---------------------------------------------------|
D|-7/12-10-5-7-------7-7-7/8-8\7--7-5-3-2------------|
A|------------7-0-5-7----------------------1-1-0-1-1/|
E|---------------------------------------------------|

CHOURS
G|-------------------------------------|
D|-8-8---------8-8-8-----------7-7-7-7-|
A|----7-7-8-8-7------7-77-8-8-8--------|
E|-------------------------------------|

END WE WILL GROW OLD....        VERY LAST BIT
G|------------------------|    |-----------------|
D|-5/12----0---5/12-----0-| X4 |-5/7-------------|
A|------12/---------12/---|    |----5/3-3/2--0~~-|
E|------------------------|    |-----------------|
"            
Submit corrections

comments powered by Disqus
↑ Back to top | Oasis Bass for Let's All Make Believe. Lyrics for acoustic guitar and electric guitar. Tablatures and chords are parodies/interpretations of the original songs. You may use it for private study, scholarship, research or language learning purposes only