» » »

(It's Good) To Be Free Tabs (ver.2)

Artists:  A B C D E F G H I J K L M N O P Q R S T U V W X Y Z # 

(It's Good) To Be Free Tabs (ver.2)

Oasis
Rating:
0/5 (0 votes)

Hard to play? Try these video lessons and learn fast.
                (1)
This song is played in standard tuning, but the intro and the solo are played with the 
pickup, the rest of the song is played on the lowest

^ - Bend
h - Hammer on
p - Pull off
/ - Slide
x - Mute note

INTRO - Distorted

e|----------------------|----------------------|
B|----------------------|----------------------|
G|--9-------------------|-------------9--7-----|
D|----------------------|------------------9---|
A|----------------------|----------------------|
E|----------------------|----------------------|

e|----------------------|----------------------|
B|----------------------|----------------------|
G|----------------------|----------/9--7-------|
D|--2-------------------|----------------9-----|
A|----------------------|----------------------|
E|----------------------|----------------------|

e|----------------------|----------------------|
B|----------------------|------9----9--7-------|
G|----------------------|-----------------9----|
D|----------------------|----------------------|
A|--7-------------------|----------------------|
E|----------------------|----------------------|

e|----------------------|
B|----------------------|
G|----------------------|
D|----------------------|
A|--7-------------------|
E|----------------------|

RIFF - Distorted

e|----------------------|
B|----------------------|
G|----------------------|
D|-----0---------0--0h2-|
A|--0h2----2--0h2-------|
E|----------------------|

VERSE 1  - In the studio, its played with a echo type effect, but I would just play it 
light distortion

e|---------0------------|-----------0----------|
B|-----3-----3----------|-------3-----3--------|
G|-------------0--------|---------------0------|
D|--2-------------------|----------------------|
A|--2-------------------|----------------------|
E|----------------0-----|----------------------|

e|---------0------------|----------0-----------|
B|-----3-----3----------|------3-----3---------|
G|-------------0--------|--------------0-------|
D|----------------------|----------------------|
A|--3-------------3-----|----------------------|
E|----------------------|----------------------|

e|--------0-------------|--------0-------------|
B|--2---2--------2------|--1---1---------1-----|
G|----2------------2----|----2-------------2---|
D|----------------------|----------------------|
A|----------------------|----------------------|
E|----------------------|----------------------|

e|-----------0----------|-------------0--------|
B|-------3-----3--------|-------3-3-----3------|
G|---------------0------|-----------------0----|
D|----------------------|----------------------|
A|----------------------|----------------------|
E|--0---------------0---|----------------------|

e|---------0------------|-----------0----------|
B|-----3-----3----------|-------3-----3--------|
G|-------------0--------|---------------0------|
D|----------------------|----------------------|
A|----------------------|----------------------|
E|--0-------------0-----|----------------------|

e|---------0------------|----------0-----------|
B|-----3-----3----------|------3-----3---------|
G|-------------0--------|--------------0-------|
D|----------------------|----------------------|
A|--3-------------3-----|----------------------|
E|----------------------|----------------------|

e|--------0-------------|--------0-------------|
B|--2---2--------2------|--1---1---------1-----|
G|----2------------2----|----2-------------2---|
D|----------------------|----------------------|
A|----------------------|----------------------|
E|----------------------|----------------------|

e|-----------0----------|
B|-------3-----3---3----|
G|---------------0------|
D|----------------------|
A|----------------------|
E|--0-------------------|

RIFF - Distorted

e|----------------------|
B|----------------------|
G|----------------------|
D|-----0----0----0--0h2-|
A|--0h2-------0h2-------|
E|----------------------|

CHORUS - Distorted

e|----------------------|----------------------|
B|----------------------|----------------------|
G|--------------0-------|------------0---------|
D|--------2-----------2-|-------4---------4----|
A|--3-------------------|--5-------------------|
E|----------------------|----------------------|

e|----------------------|
B|----------------------|
G|----------------------|
D|-----0----0----0--0h2-|
A|--0h2-------0h2-------|
E|----------------------|

e|----------------------|----------------------|
B|----------------------|----------------------|
G|--------------0-------|------------0---------|
D|--------2-----------2-|-------4---------4----|
A|--3-------------------|--5-------------------|
E|----------------------|----------------------|

e|----------------------|
B|----------------------|
G|----------------------|
D|-----0----0----0--0h2-|
A|--0h2-------0h2-------|
E|----------------------|

e|----------------------|----------------------|
B|----------------------|----------------------|
G|--------------0-------|------------0---------|
D|--------2-----------2-|-------4---------4----|
A|--3-------------------|--5-------------------|
E|----------------------|----------------------|

e|----------------------|
B|----------------------|
G|----------------------|
D|-----0----0----0--0h2-|
A|--0h2-------0h2-------|
E|----------------------|

(Light Distortion)

e|------------0---------|---------0------------|
B|---------2-------2----|--1---1-------1-------|
G|------2-------------2-|----2------------2----|
D|---2------------------|----------------------|
A|----------------------|----------------------|
E|----------------------|----------------------|

BRIDGE - Again it uses the echo type effect, but I would use light distortion

e|-----------0----------|--0-0-0-0-0-0-0-0-----|
B|------3-------3-------|--3-3-3-3-3-3-3-3-----|
G|-----------------0----|--0-0-0-0-0-0-0-0-----|
D|--------------------2-|--0-0-0-0-0-0-0-0-----|
A|----------------------|--x-x-x-x-x-x-x-x-----|
E|--0-------------------|--3-3-3-3-3-3-3-3-----|

VERSE 2 - The same echo effect - use light distortion

e|---------0------------|-----------0----------|
B|-----3-----3----------|-------3-----3--------|
G|-------------0--------|---------------0------|
D|----------------------|----------------------|
A|----------------------|----------------------|
E|--0--------------0----|----------------------|

e|---------0------------|----------0-----------|
B|-----3-----3----------|------3-----3---------|
G|-------------0--------|--------------0-------|
D|----------------------|----------------------|
A|--3-------------3-----|----------------------|
E|----------------------|----------------------|

e|--------0-------------|--------0-------------|
B|--2---2--------2------|--1---1---------1-----|
G|----2------------2----|----2-------------2---|
D|----------------------|----------------------|
A|----------------------|----------------------|
E|----------------------|----------------------|

e|-----------0----------|
B|-------3-----3--------|
D|----------------------|
A|----------------------|
E|--0---------------0---|

RIFF - Distorted

e|----------------------|
B|----------------------|
G|----------------------|
D|-----0---------0--0h2-|
A|--0h2----2--0h2-------|
E|----------------------|

e|---------0------------|-----------0----------|
B|-----3-----3----------|-------3-----3--------|
G|-------------0--------|---------------0------|
D|----------------------|----------------------|
A|----------------------|----------------------|
E|--0-------------0-----|----------------------|

e|---------0------------|----------0-----------|
B|-----3-----3----------|------3-----3---------|
G|-------------0--------|--------------0-------|
D|----------------------|----------------------|
A|--3-------------3-----|----------------------|
E|----------------------|----------------------|

e|--------0-------------|--------0-------------|
B|--2---2--------2------|--1---1---------1-----|
G|----2------------2----|----2-------------2---|
D|----------------------|----------------------|
A|----------------------|----------------------|
E|----------------------|----------------------|

e|-----------0----------|
B|-------3-----3---3----|
G|---------------0------|
D|----------------------|
A|----------------------|
E|--0-------------------|

RIFF - Distorted

e|----------------------|
B|----------------------|
G|----------------------|
D|-----0----0----0--0h2-|
A|--0h2-------0h2-------|
E|----------------------|

CHORUS - Distorted

e|----------------------|----------------------|
B|----------------------|----------------------|
G|--------------0-------|------------0---------|
D|--------2-----------2-|-------4---------4----|
A|--3-------------------|--5-------------------|
E|----------------------|----------------------|

e|----------------------|
B|----------------------|
G|----------------------|
D|-----0----0----0--0h2-|
A|--0h2-------0h2-------|
E|----------------------|

e|----------------------|----------------------|
B|----------------------|----------------------|
G|--------------0-------|------------0---------|
D|--------2-----------2-|-------4---------4----|
A|--3-------------------|--5-------------------|
E|----------------------|----------------------|

e|----------------------|
B|----------------------|
G|----------------------|
D|-----0----0----0--0h2-|
A|--0h2-------0h2-------|
E|----------------------|

e|----------------------|----------------------|
B|----------------------|----------------------|
G|--------------0-------|------------0---------|
D|--------2-----------2-|-------4---------4----|
A|--3-------------------|--5-------------------|
E|----------------------|----------------------|

e|----------------------|
B|----------------------|
G|----------------------|
D|-----0----0----0--0h2-|
A|--0h2-------0h2-------|
E|----------------------|

(Light Distortion)

e|------------0---------|---------0------------|
B|---------2-------2----|--1---1-------1-------|
G|------2-------------2-|----2------------2----|
D|---2------------------|----------------------|
A|----------------------|----------------------|
E|----------------------|----------------------|

PRE-SOLO - Distorted

e|----------------------|----------------------|
B|----------------------|----------------------|
G|----------------------|----------------------|
D|--------------0--0-0h2|--------------0--0-0h2|
A|------2--0-0h2--------|------2--0-0h2--------|
E|--0-------------------|--0-------------------|

(Light Distortion)

e|------------0----0----|---------0------------|
B|---------2------------|--1---1-------1-------|
G|------2-------------2-|----2------------2----|
D|---2------------------|----------------------|
A|----------------------|----------------------|
E|----------------------|----------------------|

(Distorted)

e|----------------------|----------------------|
B|----------------------|----------------------|
G|----------------------|------------/9---/9---|
D|--------------0--0-0h2|----------------------|
A|------2--0-0h2--------|------2---------------|
E|--0-------------------|--0-------------------|

SOLO - Distorted & On top pickup

e|----------------------|----------------------|
B|----------------------|----------------------|
G|--9----9----9--7------|---------------------7|
D|------------------9---|-------------------9--|
A|---------------------7|-7--7--7--7--7--7-----|
E|----------------------|----------------------|

e|----------------------|----------------------|
B|----------------------|----------------------|
G|--9----9----9--7------|---------------------7|
D|------------------9---|-------------------9--|
A|---------------------7|-7--7--7--7--7--7-----|
E|----------------------|----------------------|

e|----------------------|----------------------|
B|----------------------|----------------------|
G|--9----9----9--7------|---------------------7|
D|------------------9---|-------------------9--|
A|---------------------7|-7--7--7--7--7--7-----|
E|----------------------|----------------------|

e|----------------------|----------------------|
B|----------------------|----------------------|
G|--9----9----9--7------|---------------------7|
D|------------------9---|-------------------9--|
A|---------------------7|-7--7--7--7--7--7-----|
E|----------------------|----------------------|


e|----------------------------|----------------------------|
B|----------------------------|----------------------------|
G|--14^--14^--14p12----12-----|----------------12h14-14-12-|
D|------------------14----14--|------12---12h14------------|
A|----------------------------|-12h14----------------------|
E|----------------------------|----------------------------|

e|----------------------------|----------------------------|
B|----------------------------|----------------------------|
G|--14^--14^--14p12----12-----|---------------------12--14-|
D|------------------14----14--|------12--------12h14-------|
A|----------------------------|-12h14-----12h14------------|
E|----------------------------|----------------------------|

e|----------------------------|----------------------------|
B|----------------------------|----------------------------|
G|--14^--14^--1414p12----12-12|-------1212-x-12-------1214-|
D|------------------14--------|--14---1212-x-12-----14-----|
A|----------------------------|----------------------------|
E|----------------------------|----------------------------|


(Half Bend)                    (Full)
e|----------------------------|----------------------------|
B|----------------------------|----------------------------|
G|--14^--12--------12h14-12-14|--14^--12-----------------12|
D|-----------14---------------|-----------14--------12h14--|
A|----------------------------|----------------12h14-------|
E|----------------------------|----------------------------|


e|----------------------------|----------------------------|
B|----------------------------|----------------------------|
G|-----------------12---------|----------------------12-14-|
D|--14-14---1412h14-----14----|------12--12-----12h14------|
A|----------------------------|-12h14------12h14-----------|
E|----------------------------|----------------------------|

e|----------------------------|----------------------------|
B|----------------------------|----------------------------|
G|--14^--12-------------------|-------12----14----14^------|
D|----------14--------1212----|--14------------------------|
A|---------------12h14--------|----------------------------|
E|----------------------------|----------------------------|


Lyrics:

VERSE1
Head like a rock spinning round and round
I found it in a hole sitting upside down
You point a finger at me
But I don't believe

Paint me a wish on a velvet sky
You deny the answers but don't know why
In my mind
There is no time

CHORUS
The little things they make me so happy
All I wanna do is live by the sea
Yeah little things they make me so happy
But it's good
Yes it's good
It's good to be free

VERSE2
So what would you say if I said to you
It's not what you say it's what you do
You point your finger at me
But I don't believe

Bring it on home to where we found
My head is like a rock sitting upside down
In my mind (In my mind)
There is no time

CHORUS
The little things they make me so happy
All I wanna do is live by the sea
Yeah little things they make me so happy
But it's good
Yes it's good
It's good to be free

Yeah it's good
Yes it's good
It's good to be free
            
Hard to play? Try these video lessons and learn fast. | Correct




comments powered by Disqus
↑ Back to top | Tablatures and chords are parodies/interpretations of the original songs. You may use it for private study, scholarship, research or language learning purposes only