>
 >
Importance Of Being Idle 3

Importance Of Being Idle 3 Guitar Tabs

Oasis - Importance Of Being Idle 3 chords, tabs, tablatures, lyrics

Guitar lessons | Add/correct | Request | Top 50 tabs Artists:  A B C D E F G H I J K L M N O P Q R S T U V W X Y Z 0-9

Importance Of Being Idle 3 Guitar Tabs – Oasis

CD, Sheet music, Poster

Do you like Importance Of Being Idle 3? Share with your friends now
Bass TabsBass Tabs v2Bass Tabs v3Bass Tabs v4ChordsChords v2Chords v3TabsTabs v2Tabs v3Tabs v4Tabs v5Tabs v6Tabs v7Ukulele
                          THE IMPORTANCE OF BEING IDLE
                              As recorded by Oasis
                  (From the 2005 Album DON'T BELIEVE THE TRUTH)

Words and Music by Oasis
Gtr II (E A D G B E) - 'Lead (slight dist.)'
Gtr III (E A D G B E) - 'Backing Lead'

 Intro
  Q=114(8=s8)
  Am            E     Am            E     Am            E     Am  E   Am
 4/4
  Gtr I
      |-3-|               |-3-|               |-3-|
  E E E E E E E E E   E E E E E E E E E   E E E E E E E E E   E E E E E Q  E
|-0---0-0-0-0---0---|-0---0-0-0-0---0---|-0---0-0-0-0---0---|-0---0---0------|
|-1---1-1-1-1---0---|-1---1-1-1-1---0---|-1---1-1-1-1---0---|-1---0---1------|
|-2---2-2-2-2---1---|-2---2-2-2-2---1---|-2---2-2-2-2---1---|-2---1---2------|
|-2---2-2-2-2---2---|-2---2-2-2-2---2---|-2---2-2-2-2---2---|-2---2---2------|
|-0---0-0-0-0---2---|-0---0-0-0-0---2---|-0---0-0-0-0---2---|-0---2---0------|
|---------------0---|---------------0---|---------------0---|-----0----------|


  Am
     |-3--|           |-3--|           |-3--|           |-3--|
  Q  Q Q +Q  E E   Q  Q Q +Q  E E   Q  Q Q +Q  E E   Q  Q Q +Q  E E
|-0--0-0-(0)-0-0-|-0--0-0-(0)-0-0-|-0--0-0-(0)-0-0-|-0--0-0-(0)-0-0--||
|-1--1-1-(1)-1-1-|-1--1-1-(1)-1-1-|-1--1-1-(1)-1-1-|-1--1-1-(1)-1-1--||
|-2--2-2-(2)-2-2-|-2--2-2-(2)-2-2-|-2--2-2-(2)-2-2-|-2--2-2-(2)-2-2--||
|-2--2-2-(2)-2-2-|-2--2-2-(2)-2-2-|-2--2-2-(2)-2-2-|-2--2-2-(2)-2-2--||
|-0--0-0-(0)-0-0-|-0--0-0-(0)-0-0-|-0--0-0-(0)-0-0-|-0--0-0-(0)-0-0--||
|----------------|----------------|----------------|-----------------||


   Verse
    Am               Fmaj7            C                B7     E
       |-3--|           |-3--|           |-3--|
    Q  Q Q +Q  E E   Q  Q Q +Q  E E   Q  Q Q +Q  E E   Q  E E Q  E E
||--0--0-0-(0)-0-0-|-0--0-0-(0)-0-0-|-0--0-0-(0)-0-0-|-2--2-2-0--0-0-|
||o-1--1-1-(1)-1-1-|-1--1-1-(1)-1-1-|-1--1-1-(1)-1-1-|-4--4-4-0--0-0-|
||--2--2-2-(2)-2-2-|-2--2-2-(2)-2-2-|-0--0-0-(0)-0-0-|-2--2-2-1--1-1-|
||--2--2-2-(2)-2-2-|-3--3-3-(3)-3-3-|-2--2-2-(2)-2-2-|-4--4-4-2--2-2-|
||o-0--0-0-(0)-0-0-|-3--3-3-(3)-3-3-|-3--3-3-(3)-3-3-|-2--2-2-2--2-2-|
||-----------------|-1--1-1-(1)-1-1-|----------------|--------0--0-0-|


  Am               Fmaj7            C                B7     E
     |-3--|           |-3--|           |-3--|
  Q  Q Q +Q  E E   Q  Q Q +Q  E E   Q  Q Q +Q  E E   Q  E E Q  E E
|-0--0-0-(0)-0-0-|-0--0-0-(0)-0-0-|-0--0-0-(0)-0-0-|-2--2-2-0--0-0--||
|-1--1-1-(1)-1-1-|-1--1-1-(1)-1-1-|-1--1-1-(1)-1-1-|-4--4-4-0--0-0-o||
|-2--2-2-(2)-2-2-|-2--2-2-(2)-2-2-|-0--0-0-(0)-0-0-|-2--2-2-1--1-1--||
|-2--2-2-(2)-2-2-|-3--3-3-(3)-3-3-|-2--2-2-(2)-2-2-|-4--4-4-2--2-2--||
|-0--0-0-(0)-0-0-|-3--3-3-(3)-3-3-|-3--3-3-(3)-3-3-|-2--2-2-2--2-2-o||
|----------------|-1--1-1-(1)-1-1-|----------------|--------0--0-0--||


 Chorus
  Dm                Am                Dm                Am
  E E E E E E E E   E E E E E E E E   E E E E E E E E   E E E E E E E E
|-1---1---1---1---|-0---0---0---0---|-1---1---1---1---|-0---0---0---0---|
|-3---3---3---3---|-1---1---1---1---|-3---3---3---3---|-1---1---1---1---|
|-2---2---2---2---|-2---2---2---2---|-2---2---2---2---|-2---2---2---2---|
|-0---0---0---0---|-2---2---2---2---|-0---0---0---0---|-2---2---2---2---|
|-----------------|-0---0---0---0---|-----------------|-0---0---0---0---|
|-----------------|-----------------|-----------------|-----------------|


  Dm                Am                Fmaj7
                                         |-3--|           |-3--|
  E E E E E E E E   E E E E E E E E   Q  Q Q +Q  E E   Q  Q Q +Q  E E
|-1---1---1---1---|-0---0---0---0---|-0--0-0-(0)-0-0-|-0--0-0-(0)-0-0-|
|-3---3---3---3---|-1---1---1---1---|-1--1-1-(1)-1-1-|-1--1-1-(1)-1-1-|
|-2---2---2---2---|-2---2---2---2---|-2--2-2-(2)-2-2-|-2--2-2-(2)-2-2-|
|-0---0---0---0---|-2---2---2---2---|-3--3-3-(3)-3-3-|-3--3-3-(3)-3-3-|
|-----------------|-0---0---0---0---|-3--3-3-(3)-3-3-|-3--3-3-(3)-3-3-|
|-----------------|-----------------|-1--1-1-(1)-1-1-|-1--1-1-(1)-1-1-|


  G                E                                 E7
     |-3--|           |-3--|           |-3--|
  Q  Q Q +Q  E E   Q  Q Q +Q  E E   Q  Q Q +Q  E E   Q  E E E E E E
|-3--3-3-(3)-3-3-|-0--0-0-(0)-0-0-|-0--0-0-(0)-0-0-|-0--0-0-0-0-0-0-||
|-3--3-3-(3)-3-3-|-0--0-0-(0)-0-0-|-0--0-0-(0)-0-0-|-0--0-0-0-0-0-0-||
|-0--0-0-(0)-0-0-|-1--1-1-(1)-1-1-|-1--1-1-(1)-1-1-|-1--1-1-1-1-1-1-||
|-0--0-0-(0)-0-0-|-2--2-2-(2)-2-2-|-2--2-2-(2)-2-2-|-0--0-0-0-0-0-0-||
|-2--2-2-(2)-2-2-|-2--2-2-(2)-2-2-|-2--2-2-(2)-2-2-|-2--2-2-2-2-2-2-||
|-3--3-3-(3)-3-3-|-0--0-0-(0)-0-0-|-0--0-0-(0)-0-0-|-0--0-0-0-0-0-0-||


 Guitar Solo
  Am                      Fmaj7
  Gtr II
  Q.    E   E     E E E   H       E      E  E  E
|-----------------------|------------------------|
|-----------------5-----|--------13-----12-------|
|-------5---7-------7-5-|------------------14-12-|
|-7---------------------|-7----------------------|
|-----------------------|------------------------|
|-----------------------|------------------------|
|
| Gtr I
|     |---3----|             |---3---|
| Q   Q   Q   +Q    E E   Q  Q Q    +Q      E  E
|-0---0---0---(0)---0-0-|-0--0-0----(0)-----0--0-|
|-1---1---1---(1)---1-1-|-1--1-1----(1)-----1--1-|
|-2---2---2---(2)---2-2-|-2--2-2----(2)-----2--2-|
|-2---2---2---(2)---2-2-|-3--3-3----(3)-----3--3-|
|-0---0---0---(0)---0-0-|-3--3-3----(3)-----3--3-|
|-----------------------|-1--1-1----(1)-----1--1-|


  C                        B7      E
   H       E      E  Q      H       H
|------------------------|-----------------|
|------------------------|-----------------|
|---------12-----14-12---|-----------------|
|-14---------------------|-13------14------|
|------------------------|-----------------|
|------------------------|-----------------|
|
|     |---3---|
|  Q  Q Q    +Q      E E    Q  E E  Q  E E
|--0--0-0----(0)-----0-0-|--2--2-2--0--0-0-|
|--1--1-1----(1)-----1-1-|--4--4-4--0--0-0-|
|--0--0-0----(0)-----0-0-|--2--2-2--1--1-1-|
|--2--2-2----(2)-----2-2-|--4--4-4--2--2-2-|
|--3--3-3----(3)-----3-3-|--2--2-2--2--2-2-|
|------------------------|----------0--0-0-|


  Am                      Fmaj7
  Q.    E   E     E E E   H       E      E  E  E
|-----------------------|------------------------|
|-----------------5-----|--------13-----12-------|
|-------5---7-------7-5-|------------------14-12-|
|-7---------------------|-7----------------------|
|-----------------------|------------------------|
|-----------------------|------------------------|
|
|     |---3----|             |---3---|
| Q   Q   Q   +Q    E E   Q  Q Q    +Q      E  E
|-0---0---0---(0)---0-0-|-0--0-0----(0)-----0--0-|
|-1---1---1---(1)---1-1-|-1--1-1----(1)-----1--1-|
|-2---2---2---(2)---2-2-|-2--2-2----(2)-----2--2-|
|-2---2---2---(2)---2-2-|-3--3-3----(3)-----3--3-|
|-0---0---0---(0)---0-0-|-3--3-3----(3)-----3--3-|
|-----------------------|-1--1-1----(1)-----1--1-|


  C                        B7      E
   H       E      E  Q      H       H
|------------------------|-----------------|
|------------------------|-----------------|
|---------12-----14-12---|-----------------|
|-14---------------------|-13------14------|
|------------------------|-----------------|
|------------------------|-----------------|
|
|     |---3---|
|  Q  Q Q    +Q      E E    Q  E E  Q  E E
|--0--0-0----(0)-----0-0-|--2--2-2--0--0-0-|
|--1--1-1----(1)-----1-1-|--4--4-4--0--0-0-|
|--0--0-0----(0)-----0-0-|--2--2-2--1--1-1-|
|--2--2-2----(2)-----2-2-|--4--4-4--2--2-2-|
|--3--3-3----(3)-----3-3-|--2--2-2--2--2-2-|
|------------------------|----------0--0-0-|


  Am                                       Fmaj7
                    |-----3------|                         |------3------|
   Q      Q         E     +E     E  E  E    Q      Q       E     +E      E  E  E
|----------------------------------------|---------------------------------------|
|----------------------------------------|---------------------------------------|
|-19b21--19b21-----19b21r(19)---17----17-|-19b21--19b21---19b21r(19)----17----17-|
|----------------------------------19----|---------------------------------19----|
|----------------------------------------|---------------------------------------|
|----------------------------------------|---------------------------------------|
|
| Gtr III
|  Q.          E    E         E     E  E    H              E          E     E  E
|----------------------------------------|---------------------------------------|
|-----------------------------5----------|----------------13---------12----------|
|--------------5----7---------------7--5-|---------------------------------14-12-|
|--7-------------------------------------|--7------------------------------------|
|----------------------------------------|---------------------------------------|
|----------------------------------------|---------------------------------------|
|
| Gtr I
|         |-------3--------|                       |------3-------|
|  Q      Q      Q        +Q        E  E    Q      Q    Q        +Q         E  E
|--0------0------0--------(0)-------0--0-|--0------0----0--------(0)--------0--0-|
|--1------1------1--------(1)-------1--1-|--1------1----1--------(1)--------1--1-|
|--2------2------2--------(2)-------2--2-|--2------2----2--------(2)--------2--2-|
|--2------2------2--------(2)-------2--2-|--3------3----3--------(3)--------3--3-|
|--0------0------0--------(0)-------0--0-|--3------3----3--------(3)--------3--3-|
|----------------------------------------|--1------1----1--------(1)--------1--1-|


  C                                     B7      E
   Q      E  E       +E       E  E  E    H       H
|-------------------------------------|-------------------|
|--------20---------------------------|-------------------|
|-19b21-----19b21r==(19)-----17----17-|-16----------------|
|-------------------------------19----|---------14--------|
|-------------------------------------|-------------------|
|-------------------------------------|-------------------|
|
|  H                  E       E  Q       H       H
|-------------------------------------|-------------------|
|-------------------------------------|-------------------|
|--------------------12------14-12----|-------------------|
|-14----------------------------------|-13------14--------|
|-------------------------------------|-------------------|
|-------------------------------------|-------------------|
|
|         |-------3-------|
|  Q      Q       Q      +Q      E  E    Q  E E  Q  E E
|--0------0-------0------(0)-----0--0-|--2--2-2--0--0-0---|
|--1------1-------1------(1)-----1--1-|--4--4-4--0--0-0---|
|--0------0-------0------(0)-----0--0-|--2--2-2--1--1-1---|
|--2------2-------2------(2)-----2--2-|--4--4-4--2--2-2---|
|--3------3-------3------(3)-----3--3-|--2--2-2--2--2-2---|
|-------------------------------------|----------0--0-0---|


  Am                                       Fmaj7
                    |-----3------|
   Q      Q         E     +E     E  E  E    Q      E  E       +E       E  E  E
|----------------------------------------|-------------------------------------|
|----------------------------------------|--------20---------------------------|
|-19b21--19b21-----19b21r(19)---17----17-|-19b21-----19b21r==(19)-----17----17-|
|----------------------------------19----|-------------------------------19----|
|----------------------------------------|-------------------------------------|
|----------------------------------------|-------------------------------------|
|
|  Q.          E    E         E     E  E    H                  E       E  E  E
|----------------------------------------|-------------------------------------|
|-----------------------------5----------|--------------------13------12-------|
|--------------5----7---------------7--5-|-------------------------------14-12-|
|--7-------------------------------------|--7----------------------------------|
|----------------------------------------|-------------------------------------|
|----------------------------------------|-------------------------------------|
|
|         |-------3--------|                       |-------3-------|
|  Q      Q      Q        +Q        E  E    Q      Q       Q      +Q      E  E
|--0------0------0--------(0)-------0--0-|--0------0-------0------(0)-----0--0-|
|--1------1------1--------(1)-------1--1-|--1------1-------1------(1)-----1--1-|
|--2------2------2--------(2)-------2--2-|--2------2-------2------(2)-----2--2-|
|--2------2------2--------(2)-------2--2-|--3------3-------3------(3)-----3--3-|
|--0------0------0--------(0)-------0--0-|--3------3-------3------(3)-----3--3-|
|----------------------------------------|--1------1-------1------(1)-----1--1-|


  C                  B7
                          |--3--|
   Q     Q   Q  Q     Q   E  E  E  Q   Q
|------------------|----------------------||
|------------------|----------------------||
|-19b21-----16-----|----------------------||
|------------------|-14--14-14-14-14------||
|------------------|----------------------||
|------------------|----------------------||
|
|  Q     Q   Q  Q     Q   Q     Q    Q
|------------------|----------------------||
|------------------|----------------------||
|------------------|----------------------||
|-14---------------|----------------------||
|-----------14-----|----------------------||
|------------------|-12--12----12---------||
|
|                         |--3--|
|  Q     Q   Q  Q     Q   E  E  E  Q   Q
|--0---------2-----|--0---0--0--0--0------||
|--1---------0-----|--0---0--0--0--0------||
|--0---------2-----|--1---1--1--1--1------||
|--2---------1-----|--2---2--2--2--2------||
|--3---------2-----|--2---2--2--2--2------||
|------------------|--0---0--0--0--0------||


 Chorus
  Dm                Am                Dm                Am
  Gtr I
  E E E E E E E E   E E E E E E E E   E E E E E E E E   E E E E E E E E
|-1---1---1---1---|-0---0---0---0---|-1---1---1---1---|-0---0---0---0---|
|-3---3---3---3---|-1---1---1---1---|-3---3---3---3---|-1---1---1---1---|
|-2---2---2---2---|-2---2---2---2---|-2---2---2---2---|-2---2---2---2---|
|-0---0---0---0---|-2---2---2---2---|-0---0---0---0---|-2---2---2---2---|
|-----------------|-0---0---0---0---|-----------------|-0---0---0---0---|
|-----------------|-----------------|-----------------|-----------------|


  Dm                Am                Fmaj7
                                         |-3--|           |-3--|
  E E E E E E E E   E E E E E E E E   Q  Q Q +Q  E E   Q  Q Q +Q  E E
|-1---1---1---1---|-0---0---0---0---|-0--0-0-(0)-0-0-|-0--0-0-(0)-0-0-|
|-3---3---3---3---|-1---1---1---1---|-1--1-1-(1)-1-1-|-1--1-1-(1)-1-1-|
|-2---2---2---2---|-2---2---2---2---|-2--2-2-(2)-2-2-|-2--2-2-(2)-2-2-|
|-0---0---0---0---|-2---2---2---2---|-3--3-3-(3)-3-3-|-3--3-3-(3)-3-3-|
|-----------------|-0---0---0---0---|-3--3-3-(3)-3-3-|-3--3-3-(3)-3-3-|
|-----------------|-----------------|-1--1-1-(1)-1-1-|-1--1-1-(1)-1-1-|


  G                E                                 E7
     |-3--|           |-3--|           |-3--|
  Q  Q Q +Q  E E   Q  Q Q +Q  E E   Q  Q Q +Q  E E   Q  E E E E E E
|-3--3-3-(3)-3-3-|-0--0-0-(0)-0-0-|-0--0-0-(0)-0-0-|-0--0-0-0-0-0-0-||
|-3--3-3-(3)-3-3-|-0--0-0-(0)-0-0-|-0--0-0-(0)-0-0-|-0--0-0-0-0-0-0-||
|-0--0-0-(0)-0-0-|-1--1-1-(1)-1-1-|-1--1-1-(1)-1-1-|-1--1-1-1-1-1-1-||
|-0--0-0-(0)-0-0-|-2--2-2-(2)-2-2-|-2--2-2-(2)-2-2-|-0--0-0-0-0-0-0-||
|-2--2-2-(2)-2-2-|-2--2-2-(2)-2-2-|-2--2-2-(2)-2-2-|-2--2-2-2-2-2-2-||
|-3--3-3-(3)-3-3-|-0--0-0-(0)-0-0-|-0--0-0-(0)-0-0-|-0--0-0-0-0-0-0-||


 Break
  Am            E     Am            E     Am            E     Am  E   Am
      |-3-|               |-3-|               |-3-|
  E E E E E E E E E   E E E E E E E E E   E E E E E E E E E   E E E E E Q  E
|-0---0-0-0-0---0---|-0---0-0-0-0---0---|-0---0-0-0-0---0---|-0---0---0-------||
|-1---1-1-1-1---0---|-1---1-1-1-1---0---|-1---1-1-1-1---0---|-1---0---1-------||
|-2---2-2-2-2---1---|-2---2-2-2-2---1---|-2---2-2-2-2---1---|-2---1---2-------||
|-2---2-2-2-2---2---|-2---2-2-2-2---2---|-2---2-2-2-2---2---|-2---2---2-------||
|-0---0-0-0-0---2---|-0---0-0-0-0---2---|-0---0-0-0-0---2---|-0---2---0-------||
|---------------0---|---------------0---|---------------0---|-----0-----------||


   Verse
    Am               Fmaj7            C                B7     E
       |-3--|           |-3--|           |-3--|
    Q  Q Q +Q  E E   Q  Q Q +Q  E E   Q  Q Q +Q  E E   Q  E E Q  E E
||--0--0-0-(0)-0-0-|-0--0-0-(0)-0-0-|-0--0-0-(0)-0-0-|-2--2-2-0--0-0-|
||o-1--1-1-(1)-1-1-|-1--1-1-(1)-1-1-|-1--1-1-(1)-1-1-|-4--4-4-0--0-0-|
||--2--2-2-(2)-2-2-|-2--2-2-(2)-2-2-|-0--0-0-(0)-0-0-|-2--2-2-1--1-1-|
||--2--2-2-(2)-2-2-|-3--3-3-(3)-3-3-|-2--2-2-(2)-2-2-|-4--4-4-2--2-2-|
||o-0--0-0-(0)-0-0-|-3--3-3-(3)-3-3-|-3--3-3-(3)-3-3-|-2--2-2-2--2-2-|
||-----------------|-1--1-1-(1)-1-1-|----------------|--------0--0-0-|


  Am               Fmaj7            C                B7     E
     |-3--|           |-3--|           |-3--|
  Q  Q Q +Q  E E   Q  Q Q +Q  E E   Q  Q Q +Q  E E   Q  E E Q  E E
|-0--0-0-(0)-0-0-|-0--0-0-(0)-0-0-|-0--0-0-(0)-0-0-|-2--2-2-0--0-0--||
|-1--1-1-(1)-1-1-|-1--1-1-(1)-1-1-|-1--1-1-(1)-1-1-|-4--4-4-0--0-0-o||
|-2--2-2-(2)-2-2-|-2--2-2-(2)-2-2-|-0--0-0-(0)-0-0-|-2--2-2-1--1-1--||
|-2--2-2-(2)-2-2-|-3--3-3-(3)-3-3-|-2--2-2-(2)-2-2-|-4--4-4-2--2-2--||
|-0--0-0-(0)-0-0-|-3--3-3-(3)-3-3-|-3--3-3-(3)-3-3-|-2--2-2-2--2-2-o||
|----------------|-1--1-1-(1)-1-1-|----------------|--------0--0-0--||


 Chorus
  Dm                Am                Dm                Am
  E E E E E E E E   E E E E E E E E   E E E E E E E E   E E E E E E E E
|-1---1---1---1---|-0---0---0---0---|-1---1---1---1---|-0---0---0---0---|
|-3---3---3---3---|-1---1---1---1---|-3---3---3---3---|-1---1---1---1---|
|-2---2---2---2---|-2---2---2---2---|-2---2---2---2---|-2---2---2---2---|
|-0---0---0---0---|-2---2---2---2---|-0---0---0---0---|-2---2---2---2---|
|-----------------|-0---0---0---0---|-----------------|-0---0---0---0---|
|-----------------|-----------------|-----------------|-----------------|


  Dm                Am                Fmaj7
                                         |-3--|           |-3--|
  E E E E E E E E   E E E E E E E E   Q  Q Q +Q  E E   Q  Q Q +Q  E E
|-1---1---1---1---|-0---0---0---0---|-0--0-0-(0)-0-0-|-0--0-0-(0)-0-0-|
|-3---3---3---3---|-1---1---1---1---|-1--1-1-(1)-1-1-|-1--1-1-(1)-1-1-|
|-2---2---2---2---|-2---2---2---2---|-2--2-2-(2)-2-2-|-2--2-2-(2)-2-2-|
|-0---0---0---0---|-2---2---2---2---|-3--3-3-(3)-3-3-|-3--3-3-(3)-3-3-|
|-----------------|-0---0---0---0---|-3--3-3-(3)-3-3-|-3--3-3-(3)-3-3-|
|-----------------|-----------------|-1--1-1-(1)-1-1-|-1--1-1-(1)-1-1-|


  G                E                                 E7
     |-3--|           |-3--|           |-3--|
  Q  Q Q +Q  E E   Q  Q Q +Q  E E   Q  Q Q +Q  E E   Q  E E E E E E
|-3--3-3-(3)-3-3-|-0--0-0-(0)-0-0-|-0--0-0-(0)-0-0-|-0--0-0-0-0-0-0-||
|-3--3-3-(3)-3-3-|-0--0-0-(0)-0-0-|-0--0-0-(0)-0-0-|-0--0-0-0-0-0-0-||
|-0--0-0-(0)-0-0-|-1--1-1-(1)-1-1-|-1--1-1-(1)-1-1-|-1--1-1-1-1-1-1-||
|-0--0-0-(0)-0-0-|-2--2-2-(2)-2-2-|-2--2-2-(2)-2-2-|-0--0-0-0-0-0-0-||
|-2--2-2-(2)-2-2-|-2--2-2-(2)-2-2-|-2--2-2-(2)-2-2-|-2--2-2-2-2-2-2-||
|-3--3-3-(3)-3-3-|-0--0-0-(0)-0-0-|-0--0-0-(0)-0-0-|-0--0-0-0-0-0-0-||


 Outro
  Am                    E       Am                    E
        |--3--|                       |--3--|
   E E  E  E  E  E   E  E  E     E E  E  E  E  E   E  E  E
|--0----0--0--0--0------0-----|--0----0--0--0--0------0-----|
|--1----1--1--1--1------0-----|--1----1--1--1--1------0-----|
|--2----2--2--2--2------1-----|--2----2--2--2--2------1-----|
|--2----2--2--2--2------2-----|--2----2--2--2--2------2-----|
|--0----0--0--0--0------2-----|--0----0--0--0--0------2-----|
|-----------------------0-----|-----------------------0-----|
|
| Gtr II
|       |--3--|                       |--3--|
|  Q    E  E  E  E  +E  E +E     Q    E  E  E  E  +E  E +E
|-----------------------------|-----------------------------|
|-----------------------------|-----------------------------|
|-14---14-14-14-14-(14)S9-(9)S|=14---14-14-14-14-(14)S9-(9)S|
|-----------------------------|-----------------------------|
|-----------------------------|-----------------------------|
|-----------------------------|-----------------------------|


  Am                    E       Am   E    Am
        |--3--|
   E E  E  E  E  E   E  E  E     E E  E E  E Q   E
|--0----0--0--0--0------0-----|--0----0----0--------*|
|--1----1--1--1--1------0-----|--1----0----1--------*|
|--2----2--2--2--2------1-----|--2----1----2--------*|
|--2----2--2--2--2------2-----|--2----2----2--------*|
|--0----0--0--0--0------2-----|--0----2----0--------*|
|-----------------------0-----|-------0-------------*|
|
|       |--3--|
|  Q    E  E  E  E  +E  E +E     Q    Q    Q   Q
|-----------------------------|---------------------*|
|-----------------------------|---------------------*|
|-14---14-14-14-14-(14)S9-(9)S|=14---13---14--------*|
|-----------------------------|---------------------*|
|-----------------------------|---------------------*|
|-----------------------------|---------------------*|




sold my sole for the sond time
cos the man dont pay me
I begged my landlord for some more time
He said "son the bills are wating"
My best friend called me the other night
He say "man - you crazy"
My girlfriend told me to get a life
She said "boy - you lazy"

But i dont mind
as long as theres a bed beneath the stars that shine
Ill be fine
If you give me a minute
A mans got a limit
I cant get a life if my hearts not in it

I've lost my faith in the summer time
Cos it dont stop raning
The sky all day is as dark as night
But im not complaning
I begged my doctor for one more line
He say " son - words fail me
It aint your place to be kinning tim"
i guess im just lazy

But i dont mind
as long as theres a bed beneath the stars that shine
Ill be fine
If you give me a minute
A mans got a limit
I cant get a life if my hearts not in it 
Duration Legend
---------------
W - whole; H - half; Q - quarter; E - 8th; S - 16th; T - 32nd; X - 64th; a - acciaccatura
+ - note tied to previous; . - note dotted; .. - note double dotted
Uncapitalized letters represent notes that are staccato (1/2 duration)
Irregular groupings are notated above the duration line
Duration letters will always appear directly above the note/fret number it represents the
duration for.  Duration letters with no fret number below them represent rests.  Multi-
bar rests are notated in the form Wxn, where n is the number of bars to rest for.  Low
melody durations appear below the staff

Tablature Legend
----------------
 h   - hammer-on
 p   - pull-off
 b   - bend
 pb  - pre-bend
 r   - bend release (if no number after the r, then release immediately)
 /\  - slide into or out of (from/to "nowhere")
 s   - legato slide
 S   - shift slide
  - natural harmonic
[n]  - artificial harmonic
n(n) - tapped harmonic
 ~   - vibrato
 tr  - trill
 T   - tap
 TP  - trem. picking
 PM  - palm muting
\n/  - tremolo bar dip; n = amount to dip
 \n  - tremolo bar down
 n/  - tremolo bar up
/n\  - tremolo bar inverted dip
 =   - hold bend; also acts as connecting device for hammers/pulls
 <>  - volume swell (louder/softer)
 x   - on rhythm slash represents muted slash
 o   - on rhythm slash represents single note slash

Misc Legend
-----------
 |  - bar
||  - double bar
||o - repeat start
o|| - repeat end
*|  - double bar (ending)
 :  - bar (freetime)
 $  - Segno
 &  - Coda
Tempo markers -  = BPM(8/16=s8/s16), where s8 = swing 8ths, s16 = swing 16ths





Comments


Popular Oasis tabs & chords
Bonehead's Bank Holiday 1 Chords
Cum On Feel The Noize 1 Chords
Songbird 5 Chords
Cigs And Alcohol Riff Tabs
Dont Go Away 2 Tabs
Guess God Thinks Im Able Tabs
Hey Now Tabs
Oasisdya Know What I Mean Tabs
Vvonderwall Tabs
Cloudburst Ukulele


Song lyrics



↑ Back to top | Tablatures and chords are parodies/interpretations of the original songs. You may use it for private study, scholarship, research or language learning purposes only
© 2014 AZChords.com Contact us | Privacy policy | DMCA | Add/correct tabs | Request tabs | Top 50 tabs