» » »

Oasis, Im Outta Time Bass tabs (ver.1)

Artists:  A B C D E F G H I J K L M N O P Q R S T U V W X Y Z # 

Im Outta Time Bass tabs (ver.1)

Oasis Tabs
 Rating:
4/5 (4 votes)
Im Outta Time lessons Tabs too difficult? Try these video lessons and learn fast
                

VERSE:

------------|-------------|------------|-------------|
------------|-2-----------|------------|-------------| (repeat)
------------|-------------|-0----------|-3-----------|
-0----------|-------------|------------|-------------|


CHORUS:

------------------------------------------------------------------|
------------------------------------------------------------------|
------------------------------------------------------------------|
-3---------------2-----------------------------0------------------|

if im to fall, would u be there to applaud or would u hide behind them all

---------------------------------------------------------------------------|
---------------------------------------------------------------------------|
------------------0-------------------------3------------------------------|
------------------------------------------------------------------------3--|

cause if i am to go, the in my heart you'd grow and that's where you belong

AFTER CHORUS:

---------------------------------|
---------------------------------|
----------1/2-----5--------------|
----3----------------------------|

---------------------------------|
------2--------------------------|
------------0------3-------------|
-0-------------------------------|


repeat CHORUS


END:

---------------------------------|
---------------------------------|
---------------------------------|
-3-----------------3-------------|
 
im outta time      im outta time

--------------------------------------------------------|
--------------------------------------------------------|
--------------------------0---------------3-------------| (repeat)
-3--2--0------------------------------------------------|

       im outta time      im outta time   im outta time
            
Submit corrections

comments powered by Disqus
↑ Back to top | Oasis Bass for Im Outta Time. Lyrics for acoustic guitar and electric guitar. Tablatures and chords are parodies/interpretations of the original songs. You may use it for private study, scholarship, research or language learning purposes only