» » »

Oasis, Im Outta Time Tabs (ver.1)

Artists:  A B C D E F G H I J K L M N O P Q R S T U V W X Y Z # 

Im Outta Time Tabs (ver.1)

Oasis Tabs
 Rating:
4/5 (4 votes)
Im Outta Time lessons Tabs too difficult? Try these video lessons and learn fast
1
                as my first tab, this tab was ear-transcribed but i'm almost definitely sure about this 
being 100% correct. no means of being cocky, though

INTRO
         -       -       -                -       -       -
e|--------------------------------|--------------------------------|
B|-0-------------------0----------|-0-------------------0----------|
G|-------------0-----------0------|-------------0-----------0------|
D|---------2-------2-----------2--|---------2-------2-----------2--|
A|-2------------------------------|-2------------------------------|
E|--------------------------------|--------------------------------|

         -       -       -                -       -       -
e|--------------------------------|--------------------------------|
B|-1-------------------1----------|-1-------------------1----------|
G|-------------0-----------0------|-------------0-----------0------|
D|---------2-------2-----------2--|---------2-------2-----------2--|
A|-3------------------------------|-3------------------------------|
E|--------------------------------|--------------------------------|

         -       -       -                -       -       -
e|--------------------------------|--------------------------------|
B|-2-------------------2----------|-2-------------------2----------|
G|-------------0-----------0------|-------------0-----------0------|
D|---------2-------2-----------2--|---------2-------2-----------2--|
A|-4------------------------------|-4------------------------------|
E|--------------------------------|--------------------------------|

         -       -       -                -       -       -
e|--------------------------------|--------------------------------|
B|-1-------------------1----------|-1-------------------1----------|
G|-------------0-----------0------|-------------0-----------0------|
D|---------2-------2-----------2--|---------2-------2-----------2--|
A|-3------------------------------|-3------------------------------|
E|--------------------------------|--------------------------------|

--------------------------------------------------------------------
         -       -       -                -       -       -
e|--------------------------------|--------------------------------|
B|-0-------------------0----------|-0-------------------0----------|
G|-------------0-----------0------|-------------0-----------0------|
D|---------2-------2-----------2--|---------2-------2-----------2--|
A|-2------------------------------|-2------------------------------|
E|--------------------------------|--------------------------------|

         -       -       -                -       -       -
e|--------------------------------|--------------------------------|
B|-1-------------------1----------|-1-------------------1----------|
G|-------------0-----------0------|-------------0-----------0------|
D|---------2-------2-----------2--|---------2-------2-----------2--|
A|-3------------------------------|-3------------------------------|
E|--------------------------------|--------------------------------|

         -       -       -                -       -       -
e|--------------------------------|--------------------------------|
B|-2-------------------2----------|-2-------------------2----------|
G|-------------0-----------0------|-------------0-----------0------|
D|---------2-------2-----------2--|---------2-------2-----------2--|
A|-4------------------------------|-4------------------------------|
E|--------------------------------|--------------------------------|

         -       -       -                -       -       -
e|--------------------------------|--------------------------------|
B|-1-------------------1----------|-1------------------------------|
G|-------------0-----------0------|--------------------------------|
D|---------2-------2-----------2--|--------------------------------|
A|-3------------------------------|-3------------------------------|
E|--------------------------------|--------------------------------|


VERSE

Em                                  B7
Here's a song-it reminds me of when we     were young---can't get myself some

Am                                  C
peace of mind-you know it's getting hard to fly~~


CHORUS

G                                   D(/F#)
if i'm to fall                      would you be there to applaud          or

Em                                  Em
would you hide behind them all                               cause if i am to

Am                                  C
go                  in my heart you grow             and that's where you be-

G                                   G
-long


for the bridge, rhythm guitar plays the exact same chords as used in verse

along with this fill:
         -       -       -                -       -       -
e|12--------------10--------------|--------------------------------|
B|--------------------------------|10--12------10------------------|
G|--------------------------------|-------------------12-9---------|
D|--------------------------------|--------------------------------|
A|--------------------------------|--------------------------------|
E|--------------------------------|--------------------------------|

repeated four times.

then the song goes back to the chorus


OUTRO 1

G                                   G
i'm outta time

G                                   G                            D(/F#)
i'm outta time

Em                                  Em
i'm outta time

Am                                  Am
i'm outta tiiime

C                                   C
i'm outta time


outro 2 uses the same progression as the chorus until it fades away.


CHORDS LEGEND

   G  D(/F#)  Em  Am  C  B7
e|-3----3------0---0--0---2-------|
B|-0----3------0---1--1---0-------|
G|-0----2------0---2--0---2-------|
D|-0-----------2---2--2---1-------|
A|-2-----------2---0--3---2-------|
E|-3----2------0------------------|

this tab may be hard to apply without listening to the song as you play. but otherwise, 
can easily listen to the lyrics and apply the chords that start at which words or you 
listen to the chord changes in each parts of the song and apply the chords.

i hope this tab helps you study the song and thanks for viewing
            
Submit corrections

comments powered by Disqus
↑ Back to top | Oasis Tabs for Im Outta Time. Lyrics for acoustic guitar and electric guitar. 1 Tablatures and chords are parodies/interpretations of the original songs. You may use it for private study, scholarship, research or language learning purposes only