» » »

Oasis, Hey Hey My My Bass tabs (ver.1)

Artists:  A B C D E F G H I J K L M N O P Q R S T U V W X Y Z # 

Hey Hey My My Bass tabs (ver.1)

Oasis Tabs
Rating:
0/5 (0 votes)
Hard to play? Try these video lessons and learn fast.
                Hey Hey My My from the album Familiar to Millions.

Bass starts with
           2x
G|---------|
D|---------|
A|---------|
E|--1-1-1--|

This song consist on 2 riff, hear the song to know how to put it all together

Riff 1

G|--------------------------------------| Try to make the F 
D|--------------------------------------| (1 on the E string)
A|--0--0--0-2-3-5--2-0------------------| shorth to give the effect
E|---------------------3-5--1-1-1--1-1-1|

Riff 2

G|--------------------2-2-2-0----------------|
D|--------0-2-5-5-5-5---------2-3-3-3-3-2-0--|
A|--3-3-3------------------------------------|
E|-------------------------------------------|
            

comments powered by Disqus
↑ Back to top | Oasis Bass for Hey Hey My My. Lyrics for acoustic guitar and electric guitar. Tablatures and chords are parodies/interpretations of the original songs. You may use it for private study, scholarship, research or language learning purposes only