» » »

Gas Panic Tabs (ver.2)

Artists:  A B C D E F G H I J K L M N O P Q R S T U V W X Y Z # 

Gas Panic Tabs (ver.2)

Oasis
Rating:
0/5 (0 votes)

Hard to play? Try these video lessons and learn fast.
                Gas Panic
Chords used (put capo on 3rd fret to be in key with the song)

Bb      (013331
Fmaj7   (033210)
G       (320033)
Cadd9   (032033)
D       (000232)
Bb5/Db  (010033)
Bb5/Ab  (100033)
Bb5/C   (x00033)
G5      (300033)

Picky bit at the start of FTM version
-------------------------------------

   Bb5/Db     Bb5/Ab            Bb5/C          G5
e-------3-----------3----------------3-----------3-------
B---------3-----------3----------------3-----------3----- 
G---0-----------0-------0--------0----------0--------0---
D-----0-----------0-------0--------0----------0--------0-
A-1------------------------------------------------------
E-------------1-----------------0---------3--------------
Verse
-----

     Bb     Fmaj7              G
What tongueless ghost of a sin crept through my curtains
Sailing on a sea of sweat on a stormy night
I think he don't got a name but I can't be certain
And in me he starts to confide

Chorus
------

   Bb         Fmaj7    G
My family don't seem so familiar
And my enemies all know my name
If you hear me tap on your window
Cadd9
You better get on your knees and prey
D
Panic is on the way!

Do the picky riff for a bit and then use 5th (power)
chords for the rest of the song.

Verse 2
-------

Bb       Fmaj7               G
My pulse pumps out a beat to the ghost dancer
My eyes are dead and my throat's like a black hole
And if there's a god would he give another chancer
An hour too sing for his soul


Solo
----

e--------------------------------------------------------------------
B--------------------------------------------------------------------
G-17b19~~-19r17-15~~-17b19~~-19r17-15~~--3~~~------------------------
D--------------------------------------------------------------------
A--------------------------------------------------------------------
E--------------------------------------------------------------------

e--------------------------------------------------------------------
B--------------------------------------------------------------------
G-17b19~~-19r17-15~~-17b19~~-19r17-15~~-17b18-18r17-15~~-----3~~~~~~-
D--------------------------------------------------------------------
A--------------------------------------------------------------------
E--------------------------------------------------------------------

 

Noel

e-----------------------------------------------------------------------
B-9-------------------------6-9b11~~----(6)----9(6)----9(6)----9------9-
G-8b10--8~~-6-8b10-8-6---------------6~-8b10-----8b10----8b10---8b10----
D----------------------8~~----------------------------------------------
A-----------------------------------------------------------------------
E-----------------------------------------------------------------------

e-----------------------------------------------------------------------
B------------------------------------------------------------------9----
G----6-------6-------6-------6---------6-8b10r8-6-8b10-6-8~-6-8/10------
D-8~---8p6h8---8p6h8---8p6h8---8p6h8~~----------------------------------
A-----------------------------------------------------------------------
E-----------------------------------------------------------------------

e-----------------------------------------------------------------------
B----9-10-11~~-11b14-11b14-11b14~~~-------------------------------------
G-10--------------------------------------------------------------------
D-----------------------------------------------------------------------
A-----------------------------------------------------------------------
E-----------------------------------------------------------------------

 

End riffs
---------

e-----------------------------------------------------------------------
B--------------------------------------9b10-----------------------------
G---6---------6---------6---------8---------10r8-8-6--------------------
D----8-6h8-8---8-6h8-8---8-6h8~~----------------------8-----------------  
A----------------------------------------------------------------------- 
E----------------------------------------------------------------------- 

x3
Repeat again but only the first part of the riff.


Chord over  F# the release for Fm and then release last two fingers on 4th fret
Gem does this:

e----------------------------------------------------------------------- 
B----------------------------------------------------------------------- 
G-8b9-8-6-----------8b9-8-6-----------8b9-8-6--------------------------- 
D---------8-8p6h8~~---------8-8p6h8~~---------8-8p6h8~------------------ 
A-----------------------------------------------------------------------
E-----------------------------------------------------------------------

Riff 1:
Noel does this riff a bit after Gem does the part below


e------------------------------------------------------------------9-11b13~~-9--------
B-----------9b11~r9-----9b11r9------------------------------11-9~~-------------11~~---
G-8b9-8-6-----------6~~--------6~~-------------8p6---6h8/10---------------------------
D---------8--------------------------------6h8-----8----------------------------------
A------------------------------------4h6/8--------------------------------------------
E----------------------------------8--------------------------------------------------

 

Noel                  Gem  


e-----------------------------------------------------------------------
B---------------------9b11p6--------------------------------------------
G-6--7p6h10p6----------------8p6----------------------------------------
D-------------8~~----------------8~~------------------------------------ 
A-----------------------------------------------------------------------
E-----------------------------------------------------------------------
A few times each

Then after all that randomness Gem does Riff 1 while Noel does.....

e-----------------------------------------------------------------------
B------9-----------------------------------------9----------------------
G-8h10---10~~------8p6~~------------------6-8/10---8p6------------------
D--------------6h8-----------6h8p6---8~~---------------8~~--------------
A------------------------6h8-------8------------------------------------
E-----------------------------------------------------------------------


e--------------------------------------6--------------------------------
B------9-------------------------9-----9b11~~~~-------------------------
G-8h10---10~~------8p6~~--6-8/10---8p6---------------------------------- 
D--------------6h8------------------------------------------------------ 
A----------------------------------------------------------------------- 
E-----------------------------------------------------------------------
            
Hard to play? Try these video lessons and learn fast. | Correct




comments powered by Disqus
↑ Back to top | Tablatures and chords are parodies/interpretations of the original songs. You may use it for private study, scholarship, research or language learning purposes only