» » »

Oasis, Fucking In The Bushes Tabs (ver.2)

Artists:  A B C D E F G H I J K L M N O P Q R S T U V W X Y Z # 

Fucking In The Bushes Tabs (ver.2)

Oasis Tabs
Rating:
0/5 (0 votes)
Fucking In The Bushes lessons Tabs too difficult? Try these video lessons and learn fast
                Oasis – f**king in the bushes

Band: Oasis
Track: f**king in the bushes
Tuning: standard

I think it’s pretty correct. Maybe the last solo is a bit different.
I couldn’t hear it very well. Hope you’ll have a lot of fun and find
this tab healpfull. If you have any corrections contact me on

Intro  00:10                            00:19
e|-----------------------------------------------------|
B|-----------------------------------------------------|
G|---11------------------------------------------------|
D|---22------------------------------------------------|
A|---22------------------------------------------------|
E|---00----------------------------------x\\\\\\\\\\\--|

Gtr:1  00:20
e|-----------------------------------------------------|
B|-----------------------------------------------------|
G|-----------------------------------------------------|
D|-----------------------------------------------------|
A|------------7--5---5-7~-----------------7--5---5-7~--|
E|--0--0-3p0-------5----------0--0-0h3p0-------5-------|


Keybord  00:48/01:31/02:00/02:24
e|-------------------------|
B|-------------------------|
G|----------------9~---9---|
D|-----5~----7~---7~-------|
A|-----7~------------------|
E|-------------------------|


Gtr:2 01:23/01:51
e|--------------|-------------------------|
B|--------------|-------------------------|
G|--------------|-------------------------|
D|-----7b9(7)p5-|---------------7b9(7)p5--|
A|--------------|-7--7-x-7-7-x------------|
E|--------------|-------------------------|


Gtr:2  01:31/02:24                  01:43
e|---------------------------|----------------------------------------------------------|
B|----------10-8-------------|--------13b15-(13)---13-----------------------------------|
G|----7/9~-------9-7-5-------|--7/9~------------14----14~------12-----------------------|
D|---------------------7-5---|------------------------------------14-12-----------------|
A|-------------------------7-|------------------------------------------15-12-----------|
E|---------------------------|------------------------------------------------15-12-10--|


Gtr:3 02:42
e|---21b22-21b22-(21)-17~-17h20p17---17--------------------------------|
B|---------------------------------20--20-17---------------------------|
G|-------------------------------------------19-17---------------------|
D|-------------------------------------------------19-17---------------|
A|-------------------------------------------------------19-17-15------|
E|----------------------------------------------------------------17---|
            

comments powered by Disqus
↑ Back to top | Oasis Tabs for Fucking In The Bushes. Lyrics for acoustic guitar and electric guitar. Tablatures and chords are parodies/interpretations of the original songs. You may use it for private study, scholarship, research or language learning purposes only