» » »

F**King In The Bushes Tabs (ver.1)

Artists:  A B C D E F G H I J K L M N O P Q R S T U V W X Y Z # 

F**King In The Bushes Tabs (ver.1)

Oasis
Rating:
0/5 (0 votes)

Hard to play? Try these video lessons and learn fast.
                F**KING IN BUSHES

OASIS

STANDING ON THE SHOULDERS OF GIANTS (TRACK 1)

TRANSCRIPTED BY ANDREW CORNFOOT

THIS IS THE MAIN RIFF OF THE SONG

  
e|---------------------------------------------
B|---------------------------------------------
G|---------------------------------------------
D|----------------2-2-0---2--------------------
A|----------------------2----------------------
E|--0--0-0-3-0---------------------------------
  
e|---------------------------------------------
B|---------------------------------------------
G|---------------------------------------------
D|----------------2-2-0---2--------------------
A|----------------------2----------------------
E|--0--0-0-3-0---------------------------------


IF YOU HAVE ANY CORRECTIONS OR COMMENTS TO MAKE E-MAIL 
ME:


ANDREW CORNFOOT
            
Hard to play? Try these video lessons and learn fast. | Correct




comments powered by Disqus
↑ Back to top | Tablatures and chords are parodies/interpretations of the original songs. You may use it for private study, scholarship, research or language learning purposes only