» » »

Oasis, F*Ckin' In The Bushes Tabs (ver.1)

Artists:  A B C D E F G H I J K L M N O P Q R S T U V W X Y Z # 

F*Ckin' In The Bushes Tabs (ver.1)

Oasis Tabs
 Rating:
4/5 (4 votes)
F*Ckin' In The Bushes lessons Tabs too difficult? Try these video lessons and learn fast
                SongTitle: ***in' in the Bushes

Oasis- ***ing In the Bushes.

Not a bad start to the album, but not great. I've tabbed it out as best 
as
I can. Enjoy.

*Intro*:

	Drums x2

	We put this festival on you bastards, with a lotta love.

e|-------------------|
B|-pick slide--------|
G|-----------------9-| 
D|-x/--------------9-|
A|-x/--------------7-| 
E|-x/----------------|
	
	We marched one year for you pigs.
	And you want to break our walls down? And you wanna destroy us?
	Well you go to hell!

*Verse*:

e|--------------------------|
B|--------------------------|
G|--------------------------|
D|--------------------------|
A|---------------/7-5-5h7-7-|
E|--0-0-0-3p0---------------|

Bass joins in after 4 times. Keep repeating this riff.
Then these chords are played after 8 times. 

      A      B  C
e|----5------7--8----|
B|----5------7--8----| 
G|----6------8--9----|
D|----7------9--10---|
A|----7------9--10---|
E|----5------7---8---|

Then this is played after another 16 times :

*Bridge*:

e|---------------------|----------------------|------------------
B|---------------------|----------------------|------------------
G|---------------------|----------------------|------------------
D|--7b9p7--------------|--7b9p7---------------|-7b9p7------------
A|--------7-7-7-7-7-7--|--------7-7-7-7-7-7---|-------7-7-7-7-7-7
E|---------------------|----------------------|------------------

e|---------------------|
B|---------------------|
G|---------------------|
D|--7b9p7----7b9p7-----|
A|--------7--------7-7-|
E|---------------------|


*Chorus*:

	Kids running around naked, ***ing in the bushes.

e|-------------------------------|
B|------------8p5----------------|
G|--7b9-----------7p5------------|     x 4	(Riff 1)
D|--------------------7p5--------|
A|---hold bend-------------7p5---|
E|-------------------------------|

e|---------------5--8b10--|-8-5-8-5--8p5------------------------|
B|-------8----------------|--------------8p5---------8p5--------|
G|--7b9~~~~~~9------------|-------------------7p5--------7p5----|
D|------------------------|----------------------7p5---------7--|
A|----hold bend-----------|-------------------------------------|
E|------------------------|-------------------------------------| 

	I love it!

*Then repeat the bridge, with slight variation.*

*Repeat Chorus*. (Only using riff 1)

	Room for everybody here, yes all are welcome. Yes indeed
	I love them. 
	Fun. Nice. Life. Youth. Beautiful. I'm all for it. 

*Repeat Riff 1 to fade.*

	Room for everybody here, yes all are welcome. Yes indeed
	I love them. 
	Fun. Nice. Life. Youth. Beautiful. I'm all for it. 

  
___________________________________________________________________________________________  Heres another version


This song had a cool little riff for the guitar. I figured it out and then had to figure the rest out, so here it is.... it is in my opinion accurate but any troubles please do tell me... also any requests for Oasis tabs I'd be happy to try.

e:-----------------------------------------
B:-----------------------------------------
G:-----------------------------------------
D:----------------------------------------- %[repeat 
A:------------------5--3-------5-----------   x27!!!]
E:---0--0--0--3--0--------5--3-------------    

Then comes in the start for the lead part:
(i'ev split it up into parts, so i can explain the later part ezr)

Part A)
e:-----------------------------------------
B:--14b--12------------14b-12-------------- % x4
G:------------14-------------14------------
D:-----------------------------------------
A:-----------------------------------------
E:-----------------------------------------

PartBi:
e:-----------------------------------------
B:-----------------------------------------
G:--14-12---------------------------------- x4
D:--------14-12----12-14-12-14b-------------
A:--------------14--------------------------
E:-----------------------------------------
go straight into part B)ii)
B)ii)
e:------------------------------------------
B:--12------------------13-------------------
G:--12--------14-12------------14--12--14--12 
D:-----14------------14---------------------- 
A:------------------------------------------ 
E:------------------------------------------ 
Then into part C
Part C)
e:-------------------------------------------------
B:-14-12-------------------------------------------
G:-------14-12----12--14-12------------------------
D:-------------14-----------14-12----12-14-12-14-14 x1
A:--------------------------------14---------------
E:-------------------------------------------------

BAck to part A x5 i think.. not sure exactly how many times! just play Cd to find out!

then while that is playing another guitar plays this just once on the 2nd to last time
G:---12h14
D:---12h14 VVVVVVVVV (with tremlo arm)

then part B)i)again..this time play 16 times

and during that another guitar plays a little high bit in the back ground that goes (its quite and unimportant only comes in once after 10 times)

e:--22b/\-VVVVVVVVV--22-20--20--22--
b:------------------------22--------
            
Submit corrections

comments powered by Disqus
↑ Back to top | Oasis Tabs for F*Ckin' In The Bushes. Lyrics for acoustic guitar and electric guitar. Tablatures and chords are parodies/interpretations of the original songs. You may use it for private study, scholarship, research or language learning purposes only