>
 >
Fcking In The Bushes

Fcking In The Bushes Guitar Tabs

Oasis - Fcking In The Bushes chords, tabs, tablatures, lyrics

Guitar lessons | Add/correct | Request | Top 50 tabs Artists:  A B C D E F G H I J K L M N O P Q R S T U V W X Y Z 0-9

Fcking In The Bushes Guitar Tabs – Oasis

CD, Sheet music, Poster

Do you like Fcking In The Bushes? Share with your friends now
Tabs
All the other tabs were bad so here's a correct one

Standard Tuning

-Intro-
Drums X4, then:

(00:09)
e|--------------|
B|--------------| 
G|-X\\----9-----|
D|-X\\----9-----|
A|-X\\----7-----| 
E|--------------|


-Verse-
(00:19)
e|------------------------------|
B|------------------------------| 
G|------------------------------|  Repeat many times
D|----------------2----0---2----| (Riff 1)
A|--------------2----2---2------| 
E|-0--0--0-3p0------------------|

(01:23)
e|------------------------|
B|------------------------| 
G|------------------------|   X4
D|-7h9b-7\5---------------|  (Riff 2)
A|----------7-7-7-7-7-----| 
E|------------------------|



-Chorus-

(01:31)
e|---------5-----------------|
B|--/5-------8p5-------------| 
G|---------------8p7-5-------|  X4
D|---------------------7-5---| (Riff 3)
A|---------------------------| 
E|---------------------------|

e|---------------5---10-----8-5-8-5-----------------------------------------|
B|--/5-----8-5---(5)--------------------8-5--------8-5----------------------| 
G|------------------------------------------8p7-5------8p7-5-7-5------------| 
D|----------------------------------------------------------------7--(5)----|
A|--------------------------------------------------------------------------|
E|-----------------------------------------------------------------------0--|


Riff 2

Riff 3





Comments


Popular Oasis tabs & chords
Do You Know What I Mean Bass Tabs
Be Here Now 1 Chords
Live Forever 5 Chords
Lyla 7 Chords
Married With Children 2 Chords
Round Are Way Chords
Just Getting Older Tabs
Step Out Tabs
Thank You For The Good Times Tabs
Fuckin In The Bushes Ukulele


Song lyrics



↑ Back to top | Tablatures and chords are parodies/interpretations of the original songs. You may use it for private study, scholarship, research or language learning purposes only
© 2014 AZChords.com Contact us | Privacy policy | DMCA | Add/correct tabs | Request tabs | Top 50 tabs