>
 >
Fade In-out

Fade In-out Bass Tabs

Oasis - Fade In-out chords, tabs, tablatures, lyrics

Guitar lessons | Add/correct | Request | Top 50 tabs Artists:  A B C D E F G H I J K L M N O P Q R S T U V W X Y Z 0-9

Fade In-out Bass Tabs – Oasis

CD, Sheet music, Poster

Do you like Fade In-out? Share with your friends now
Bass TabsChordsUkuleleUkulele v2
Oasis - Fade In-Out


NOTE: When Liam yells Aaaaah! then stop following the timings and at same place
the hits (A-10-10-...) it's not that you play it only twice listen the song
and you'll know how many times it comes


lr = let ring

Intro slightly
G|----------------|----------------|----------------|----------------|
D|----------------|----------------|----------------|----------------|
A|----------------|----------------|----------------|----------------|
E|-10-------------|-10-------------|-10-------------|-8-----7---5-7-8|

G|----------------|----------------|----------------|----------------|
D|--------10----9-|-12-------------|--------10----9-|-12-------------|
A|----------------|----------------|----------------|----------------|
E|-10-------------|----------------|-10-------------|----------------|

G|----------------|----------------|----------------|----------------|
D|--------10----9-|-12-------------|--------10----9-|-12-------------|
A|----------------|----------------|----------------|----------------|
E|-10-------------|----------------|-10-------------|----------------|

G|----------------|----------------|
D|----------------|----------------|
A|----------------|----------------|
E|-10-------------|-10-------------|


Verse 
Get on the roller...
G|----------------|----------------|----------------|----------------|
D|----------------|----------------|----------------|----------------|
A|----------------|-12-------------|14-----15-------|----------------|
E|-10-------------|----------------|----------------|----------------|
So get on the helter...
G|----------------|----------------|----------------|----------------|
D|----------------|----------------|----------------|----------------|
A|----------------|-12----------12/|14----/15-------|----------------|
E|-10-------------|----------------|--------------17|\10-------------|

Chorus
You fade in-out...
G|----------------|----------------|----------------|----------------|
D|-10/12------9/10|-12lr-----------|-10/12------9/10|-12lr-----------|
A|--------12------|--------------12|--------12------|--------------12|
E|----------------|-----10---------|----------------|-----10---------|

G|----------------|----------------|----------------|----------------|
D|-10/12------9/10|-12lr-----------|----------------|----------------|
A|--------12------|----------------|----------------|----------------|
E|----------------|-----10---------|-1--------------|-3------5---7/10|

G|----------------|----------------|----------------|----------------|
D|--------10----9-|-12-------------|--------10----9-|-12-------------|
A|----------------|----------------|----------------|----------------|
E|----------------|----------------|-10-------------|----------------|

Verse
Comin' in-out of...
G|----------------|----------------|----------------|----------------|
D|----------------|----------------|----------------|----------------|
A|----------------|----------------|----------------|----------------|
E|----------------|----------------|----------------|--10------------|

G|----------------|----------------|----------------|----------------|
D|----------------|----------------|----------------|-12lr-----------|
A|----------------|-12-------------|-14----15-------|----------------|
E|-7/10-----------|----------------|----------------|--------10------|

Chorus
She fade in-out
G|----------------|----------------|----------------|----------------|
D|10/12---------10|-12lr-----------|10-12---------10|-12lr-----------|
A|-------12-------|----------------|-------12-------|----------------|
E|----------7/8---|-------10-------|----------7/8---|-------10-------|

G|----------------|----------------|----------------|----------------|
D|10/12---------10|-12lr-----------|----------------|----------------|
A|-------12-------|----------------|----------------|----------------|
E|----------7/8---|-------10-------|-1--------------|-3--5-/1515151513\|

G|----------------|----------------|----------------|----------------|
D|--------10----9-|-12-------------|--------10----9-|-12-------------|
A|----------------|----------------|----------------|----------------|
E|-10-------------|----------------|-10-------------|----------------|

G|----------------|----------------|----------------|----------------|
D|--------10----9-|-12-------------|--------10---9--|-12-------------|
A|----------------|----------------|----------------|----------------|
E|-10-------------|----------------|-10-------------|----------------|

Aaaaaahh!!
G|---------------------------------------------------
D|---------------------------------------------------
A|----355-5--2-5--355-5--2-5--355-5--2-5--355-5--2-5-
E|10\------------------------------------------------

G----------------------------------------------------------
D----------------------------------------------------------
A-/1212-1212--12---12\22-22--3--3--55-55--3-5--35-55--2-5--
E----------------------------------------------------------

G-------------------------------------------------------------
D-------------------------------------------------------------
A-35-55--2-5--35-55--2-5--35-55--2-5--35-55--2-5--35-55--2-5--
E-------------------------------------------------------------

G-----------------------------------------------------------|
D-----------------------------------------------------------|
A-/1212-1212--12---12\22-22--3-3--3-55-55--2-5--55-55--2-5--|
E-----------------------------------------------------------|

Chorus
We fade in-out...  (the rhytm is important)(this just shows you what chords to play)
G|----------------|----------------|----------------|----------------|
D|-10--10---------|------1212121012|10-10-9---------|------1212121012|
A|----------------|-5-/------------|--------12------|-5-/------------|
E|----------5-7-8-|----------------|----------5-7-8-|----------------|

G|----------------|----------------|----------------|----------------|
D|10-10-9---------|------1212121012|----------------|----------------|
A|--------12------|-5-/------------|----------------|----------------|
E|----------5-7-8-|----------------|-11-11-11-11-111|33-33-3-5-7-8-10|

(play this part faster than above)
G|--------------------------------------------------------10-----------------------
D|-12-12--10-12---10-12-12-10-12-----------12-12--10-12------12-12-10-12-----------
A|--------------------------------10-12-10-----------------------------------------
E|------------------------------------------------------------------------10-12-10-

G-------------------------------------------------------------------------------|
D-12-12--10-12--------------------------12-12--10-12---10-12-10-----------------|
A----------------10-12-12---------------------------------------12-10-----------|
E--------------------------10--12-10-12---------------------------------12-10-8-|

Verse
So get on the rollercoaster...
(don't follow this timing.. just move on this chords up and down)
G|-----------------------------------------------------------------------------
D|--------------------------------------------99-99--10-10-10-10--12--10121012-
A|-----------------------------12-12-12-12-12----------------------------------
E|-10-10--10-10--10--10-10--10-------------------------------------------------

G----------------------------------------------------|
D----------------------------------99-99-10-10-10-12-|
A------------------1212-1212-12-12-------------------|
E-1010-1010--10-10-----------------------------------|

You fade in-out...
G|--------------------------------------|
D|--------------------------------------|
A|-------5--5-/17--17-15-17--15--15-12\-|
E|-5-7-8--------------------------------| x7

You fade in-out...
G|-----------------------------------------------------------------|
D|-----------------------------------------------------------------|
A|-----------------------------------------------------------------|
E|-11-11-1-11-11--11-11-1-11-11--33-33--33-33-3-33-3-3--5-7--8-10--|

End (I can't hear the bass too well so it is like it is) (Improvise this)
G|---------------------------------|
D|--12-----10-12-10--------12------|
A|------12-----------10-12---------|
E|-----------------------------10--| repeat for a while

riff changes at time 6.03





Comments


Popular Oasis tabs & chords
Its Getting Better Man Bass Tabs
Go Let It Out 1 Chords
Im Outta Time 5 Chords
Champagne Supernova Live Tabs
Fuckin' In The Bushes Tabs
Shes Electric 3 Tabs
To Be Free Tabs
To Be Free 1 Tabs
Whatever 1 Tabs
You've Got To Hide Your Love Away Tabs


Song lyrics



↑ Back to top | Tablatures and chords are parodies/interpretations of the original songs. You may use it for private study, scholarship, research or language learning purposes only
© 2014 AZChords.com Contact us | Privacy policy | DMCA | Add/correct tabs | Request tabs | Top 50 tabs