» » »

Oasis, Fade Away Bass tabs (ver.1)

Artists:  A B C D E F G H I J K L M N O P Q R S T U V W X Y Z # 

Fade Away Bass tabs (ver.1)

Oasis Tabs
Rating:
0/5 (0 votes)
Hard to play? Try these video lessons and learn fast.
                Fade Away from the album The Masterplan and the single Cigarettes and Alcohol

VERSE

G-------------------------------------------------------------------------------------|
D-------------------------------------------------------------------------------------|
A-------4-4-4-4-4-4-4-4-5-5-5-5-5-5-5-5--------------2-2-2-2-2-2-2-2-5-5-5-5-5-5-5-5--|
E-5-x8--------------------------------5-5-5-5-5-5-5-5---------------------------------|

BRIDGE

G-------------------------------------------------------------------------------------|
D-------------------------------------------------------------------------------------|
A--------2-2-2-2-2-2-2-2---5-5-5-5-5-5-5-5---2-2-2-2-2-2-2-2---5-5-5-5-5-5-5-5--------|
E-------------------------------------------------------------------------------------|

CHORUS

G-------------------------------------------------------------------------------------|
D-------------------------------------------------------------------------------------|
A0-0-0-0-0-0-0-0------------------------------------5-5-5-5-5-5-5-5-------------------|
E----------------0-0-0-0-0-0-0-0----3-3-3-3-3-3-3-3-----------------------------------|

CHORUS (fin)

G-------------------------------------------------------------------------------------|
D-------------------------------------------------------------------------------------|
A--------------------------5-5-5-5-5-5-5-5--------------------------------------------|
E-----2-2-2-2-2-2-2-2-----------------------5-5-5-5-5-5-5-5---------------------------|
            

comments powered by Disqus
↑ Back to top | Oasis Bass for Fade Away. Lyrics for acoustic guitar and electric guitar. Tablatures and chords are parodies/interpretations of the original songs. You may use it for private study, scholarship, research or language learning purposes only