» » »

Oasis, Don't Look Back In Anger Bass tabs (ver.4)

Artists:  A B C D E F G H I J K L M N O P Q R S T U V W X Y Z # 

Don't Look Back In Anger Bass tabs (ver.4)

Oasis Tabs
 Rating:
4/5 (4 votes)
Don't Look Back In Anger lessons Tabs too difficult? Try these video lessons and learn fast
1
                
DON'T LOOK BACK IN ANGER (Bassline)
As recorded by Oasis
(From the 1995 Album (WHAT'S THE STORY) MORNING GLORY)

	

Words and Music by Noel Gallagher

Gtr I (E A D G) - 'Untitled'

 Intro
  Q=84
 4/4
  Gtr I
  Wx4
|--------|
|--------|
|--------|
|--------|


   Verse
    C       G         Am      E         F       G
    E E E E E E E E   E E E E E E E E   E E E E E E E E
||------------------|-----------------|-----------------|
||o-----------------|-----------------|-----------------|
||o-3-3-3-3---------|-0-0-0-----------|---------------2-|
||----------3-3-3-3-|-------3-0-0-0-0-|-1-1-1-1-3-3-3---|


  C       Am  G     C      G         Am      E
  E E E E E E E E   Q  E E E E E E   E E E E E E E E
|-----------------|----------------|-----------------|
|-----------------|----------------|-----------------|
|-3-3-3-3-0-0---2-|-3--3-3---------|-0-0-0-0---------|
|-------------3---|--------3-3-3-3-|---------0-0-0-0-|


                                    Pre-Chorus
  F       G         C      Am  G     F       Fm
  E E E E E E E E   Q  E E E E E E   E E E E E E E E
|-----------------|----------------|-----------------|
|-----------------|----------------|-----------------|
|---------------2-|-3--3-3-0-0-----|-----------------|
|-1-1-1-1-3-3-3---|------------3-3-|-1-1-1-1-1-1-1-1-|


  C                   F       Fm        C                   F       Fm
  E E E E S S E E E   E E E E E E E E   E E E E S S E E E   E E E E E E E E
|-------------------|-----------------|-------------------|-----------------|
|-------------------|-----------------|-------------------|-----------------|
|-3-3-3-3-3---3-3-3-|-----------------|-3-3-3-3-3---3-3-3-|-----------------|
|-----------3-------|-1-1-1-1-1-1-1-1-|-----------3-------|-1-1-1-1-1-1-1-1-|


  C                   G                 Ab+
  E E E E S S E E E   Q  E. S E E E E   E E E E E E E E
|-------------------|-----------------|------------------|
|-------------------|-----------------|------------------|
|-3-3-3-3-3---3-3-3-|-----------------|------------------|
|-----------3-------|-3--3--3-3-3-3-3-|-4-4-4-4-4-4-4-4--|


  Am      G         F                 G
  E E E E E E E E   E E E E E E E E   E E E E E E E E   E E E E E E E E
|-----------------|-----------------|-----------------|-----------------|
|-----------------|-----------------|-----------------|-----------------|
|-0-0-0-0---------|-----------------|-----------------|-----------------|
|---------3-3-3-3-|-1-0-1-0-1-0-1-2-|-3-3-3-3-3-3-3-3-|-3-3-3-3-3-3-3-3-|


 Chorus
  $
  C       G         Am      E         F       G
  E E E E E E E E   E E E E E E E E   E E E E E E E E
|-----------------|-----------------|-----------------|
|-----------------|-----------------|-----------------|
|-3-3-3-3---------|-0-0-0-0---------|---------------2-|
|---------3-3-3-3-|---------0-0-0-0-|-1-1-1-1-3-3-3---|


  C       Am  G     C       G         Am      E
  E E E E E E E E   E E E E E E E E   E E E E E E E E
|-----------------|-----------------|-----------------|
|-----------------|-----------------|-----------------|
|-3-3-3-3-0-0-----|-3-3-3-3---------|-0-0-0-0---------|
|-------------3-3-|---------3-3-3-3-|---------0-0-0-0-|


                   1.
           To Coda
  F       G         C       G         Am      E
  E E E E E E E E   E E E E E E E E   E E E E E E E E
|-----------------|-----------------|-----------------|
|-----------------|-----------------|-----------------|
|---------------2-|-3-3-3-3---------|-0-0-0-0---------|
|-1-1-1-1-3-3-3---|---------3-3-3-3-|---------0-0-0-0-|


                                       2.
  F       G        C       Am  G       C       Am  G
  E E E E E Q  E   E E E E E E E E     E E E E E E E E
|----------------|------------------||-----------------|
|----------------|-----------------o||-----------------|
|--------------2-|-3-3-3-3-0-0-0---o||-3-3-3-3-0-0-----|
|-1-1-1-1-3-3----|---------------3--||-------------3-3-|


 Guitar Solo
  F       Fm        C                 F       Fm        C
  E E E E E E E E   E E E E E E E E   E E E E E E E E   E E E E E E E E
|-----------------|-----------------|-----------------|-----------------|
|-----------------|-----------------|-----------------|-----------------|
|-----------------|-3-3-3-3-3-3-3-3-|-----------------|-3-3-3-3-3-3-3-3-|
|-1-1-1-1-1-1-1-1-|-----------------|-1-1-1-1-1-1-1-1-|-----------------|


  F       Fm        C                 G
  E E E E E E E E   E E E E E E E E   Q  E. S E E E E
|-----------------|-----------------|-----------------|
|-----------------|-----------------|-----------------|
|-----------------|-3-3-3-3-3-3-3-3-|-----------------|
|-1-1-1-1-1-1-1-1-|-----------------|-3--3--3-3-3-3-3-|


  Ab+               Am      G         F
  E E E E E E E E   E E E E E E E E   E E E E E E E E
|-----------------|-----------------|-----------------|
|-----------------|-----------------|-----------------|
|-----------------|-0-0-0-0---------|-----------------|
|-4-4-4-4-4-4-4-4-|---------3-3-3-3-|-1-1-1-1-1-1-1-1-|


                                Out-Chorus
                   D.S. al Coda  &
  G                              C       Am  G
  E E E E E E E E   Q  Q  H      E E E E E E E E
|-----------------|------------|-----------------|
|-----------------|------------|-----------------|
|-----------------|------------|-3-3-3-3-0-0-----|
|-3-3-3-3-3-3-3-3-|-3----------|-------------3-3-|


  C       G         Am      E         F       G         C       Am  G
  E E E E E E E E   E E E E E E E E   E E E E E E E E   E E E E E E E E
|-----------------|-----------------|-----------------|-----------------|
|-----------------|-----------------|-----------------|-----------------|
|-3-3-3-3---------|-0-0-0-0---------|---------------2-|-3-3-3-3-0-0-----|
|---------3-3-3-3-|---------0-0-0-0-|-1-1-1-1-3-3-3---|-------------3-3-|


  C       G         Am                      C
  E E E E E E E E   W          Wx6          W
|-----------------|----------|------------|------*|
|-----------------|----------|------------|------*|
|-3-3-3-3---------|-0--------|------------|-3----*|
|---------3-3-3-3-|----------|------------|------*|



Duration Legend
---------------
W - whole; H - half; Q - quarter; E - 8th; S - 16th; T - 32nd; X - 64th; a - acciaccatura
+ - note tied to previous; . - note dotted; .. - note double dotted
Uncapitalized letters represent notes that are staccato (1/2 duration)
Irregular groupings are notated above the duration line
Duration letters will always appear directly above the note/fret number it represents the
duration for.  Duration letters with no fret number below them represent rests.  Multi-
bar rests are notated in the form Wxn, where n is the number of bars to rest for.  Low
melody durations appear below the staff

Tablature Legend
----------------
 h   - hammer-on
 p   - pull-off
 b   - bend
 pb  - pre-bend
 r   - bend release (if no number after the r, then release immediately)
 /\  - slide into or out of (from/to "nowhere")
 s   - legato slide
 S   - shift slide
 - natural harmonic
[n]  - artificial harmonic
n(n) - tapped harmonic
 ~   - vibrato
 tr  - trill
 T   - tap
 TP  - trem. picking
 PM  - palm muting
\n/  - tremolo bar dip; n = amount to dip
 \n  - tremolo bar down
 n/  - tremolo bar up
/n\  - tremolo bar inverted dip
 =   - hold bend; also acts as connecting device for hammers/pulls
 <> - volume swell (louder/softer)
 x   - on rhythm slash represents muted slash
 o   - on rhythm slash represents single note slash

Misc Legend
-----------
 |  - bar
||  - double bar
||o - repeat start
o|| - repeat end
*|  - double bar (ending)
 :  - bar (freetime)
 $  - Segno
 &  - Coda
Tempo markers -  = BPM(8/16=s8/s16), where s8 = swing 8ths, s16 = swing 16ths
            
Submit corrections

comments powered by Disqus
↑ Back to top | Oasis Bass for Don't Look Back In Anger. Lyrics for acoustic guitar and electric guitar. 1 Tablatures and chords are parodies/interpretations of the original songs. You may use it for private study, scholarship, research or language learning purposes only